  0
SECTION
  2
HEADER
  9
$ACADVER
  1
AC1009
  9
$INSBASE
 10
-26.39805755720211
 20
0.0
 30
0.0
  9
$EXTMIN
 10
-26.39805755720211
 20
-0.5959754992061499
 30
0.0
  9
$EXTMAX
 10
219.398057557202
 20
138.3683269198272
 30
0.0
  9
$LIMMIN
 10
0.0
 20
0.0
  9
$LIMMAX
 10
420.0
 20
297.0
  9
$ORTHOMODE
 70
     1
  9
$REGENMODE
 70
     1
  9
$FILLMODE
 70
     1
  9
$QTEXTMODE
 70
     0
  9
$MIRRTEXT
 70
     0
  9
$DRAGMODE
 70
     2
  9
$LTSCALE
 40
1.0
  9
$OSMODE
 70
     0
  9
$ATTMODE
 70
     1
  9
$TEXTSIZE
 40
3.5
  9
$TRACEWID
 40
0.1
  9
$TEXTSTYLE
  7
STANDARD
  9
$CLAYER
  8
ITEM_50
  9
$CELTYPE
  6
BYLAYER
  9
$CECOLOR
 62
   256
  9
$DIMSCALE
 40
1.0
  9
$DIMASZ
 40
2.0
  9
$DIMEXO
 40
1.0
  9
$DIMDLI
 40
8.0
  9
$DIMRND
 40
0.0
  9
$DIMDLE
 40
0.0
  9
$DIMEXE
 40
2.0
  9
$DIMTP
 40
0.1
  9
$DIMTM
 40
0.1
  9
$DIMTXT
 40
3.5
  9
$DIMCEN
 40
2.0
  9
$DIMTSZ
 40
0.0
  9
$DIMTOL
 70
     0
  9
$DIMLIM
 70
     0
  9
$DIMTIH
 70
     0
  9
$DIMTOH
 70
     0
  9
$DIMSE1
 70
     0
  9
$DIMSE2
 70
     0
  9
$DIMTAD
 70
     1
  9
$DIMZIN
 70
     8
  9
$DIMBLK
  1

  9
$DIMASO
 70
     1
  9
$DIMSHO
 70
     1
  9
$DIMPOST
  1

  9
$DIMAPOST
  1

  9
$DIMALT
 70
     0
  9
$DIMALTD
 70
     2
  9
$DIMALTF
 40
25.39999999999999
  9
$DIMLFAC
 40
1.0
  9
$DIMTOFL
 70
     1
  9
$DIMTVP
 40
0.0
  9
$DIMTIX
 70
     0
  9
$DIMSOXD
 70
     0
  9
$DIMSAH
 70
     0
  9
$DIMBLK1
  1

  9
$DIMBLK2
  1

  9
$DIMSTYLE
  2
*UNNAMED
  9
$DIMCLRD
 70
     0
  9
$DIMCLRE
 70
     0
  9
$DIMCLRT
 70
     0
  9
$DIMTFAC
 40
1.0
  9
$DIMGAP
 40
0.09
  9
$LUNITS
 70
     2
  9
$LUPREC
 70
     3
  9
$SKETCHINC
 40
0.1
  9
$FILLETRAD
 40
1.5
  9
$AUNITS
 70
     0
  9
$AUPREC
 70
     1
  9
$MENU
  1

  9
$ELEVATION
 40
0.0
  9
$PELEVATION
 40
0.0
  9
$THICKNESS
 40
0.0
  9
$LIMCHECK
 70
     0
  9
$BLIPMODE
 70
     0
  9
$CHAMFERA
 40
5.0
  9
$CHAMFERB
 40
5.0
  9
$SKPOLY
 70
     1
  9
$TDCREATE
 40
2448778.495870370
  9
$TDUPDATE
 40
2449393.432707986
  9
$TDINDWG
 40
0.0012619213
  9
$TDUSRTIMER
 40
0.0012619213
  9
$USRTIMER
 70
     1
  9
$ANGBASE
 50
0.0
  9
$ANGDIR
 70
     0
  9
$PDMODE
 70
     0
  9
$PDSIZE
 40
0.0
  9
$PLINEWID
 40
0.0
  9
$COORDS
 70
     2
  9
$SPLFRAME
 70
     0
  9
$SPLINETYPE
 70
     6
  9
$SPLINESEGS
 70
     8
  9
$ATTDIA
 70
     1
  9
$ATTREQ
 70
     1
  9
$HANDLING
 70
     0
  9
$HANDSEED
  5
4E3
  9
$SURFTAB1
 70
     6
  9
$SURFTAB2
 70
     6
  9
$SURFTYPE
 70
     6
  9
$SURFU
 70
     6
  9
$SURFV
 70
     6
  9
$UCSNAME
  2

  9
$UCSORG
 10
0.0
 20
0.0
 30
0.0
  9
$UCSXDIR
 10
1.0
 20
0.0
 30
0.0
  9
$UCSYDIR
 10
0.0
 20
1.0
 30
0.0
  9
$PUCSNAME
  2

  9
$PUCSORG
 10
0.0
 20
0.0
 30
0.0
  9
$PUCSXDIR
 10
1.0
 20
0.0
 30
0.0
  9
$PUCSYDIR
 10
0.0
 20
1.0
 30
0.0
  9
$USERI1
 70
     0
  9
$USERI2
 70
     3
  9
$USERI3
 70
    15
  9
$USERI4
 70
     0
  9
$USERI5
 70
     0
  9
$USERR1
 40
1.0
  9
$USERR2
 40
1.0
  9
$USERR3
 40
0.0
  9
$USERR4
 40
1.0
  9
$USERR5
 40
0.0
  9
$WORLDVIEW
 70
     5
  9
$SHADEDGE
 70
     3
  9
$SHADEDIF
 70
    70
  9
$TILEMODE
 70
     1
  9
$MAXACTVP
 70
    16
  9
$PINSBASE
 10
0.0
 20
0.0
 30
0.0
  9
$PLIMCHECK
 70
     0
  9
$PEXTMIN
 10
1.000000000000000E+20
 20
1.000000000000000E+20
 30
1.000000000000000E+20
  9
$PEXTMAX
 10
-1.000000000000000E+20
 20
-1.000000000000000E+20
 30
-1.000000000000000E+20
  9
$PLIMMIN
 10
0.0
 20
0.0
  9
$PLIMMAX
 10
12.0
 20
9.0
  9
$UNITMODE
 70
     0
  9
$VISRETAIN
 70
     0
  9
$PLINEGEN
 70
     0
  9
$PSLTSCALE
 70
     0
  9
$TREEDEPTH
 70
  3020
  9
$DWGCODEPAGE
  3
undefined
  0
ENDSEC
  0
SECTION
  2
TABLES
  0
TABLE
  2
VPORT
 70
     2
  0
VPORT
  2
*ACTIVE
 70
     0
 10
0.0
 20
0.0
 11
1.0
 21
1.0
 12
96.49999999999997
 22
96.33957901729824
 13
0.0
 23
0.0
 14
1.0
 24
1.0
 15
10.0
 25
10.0
 16
0.0
 26
0.0
 36
1.0
 17
0.0
 27
0.0
 37
0.0
 40
192.6791580345964
 41
1.275675675675675
 42
50.0
 43
0.0
 44
0.0
 50
0.0
 51
0.0
 71
     0
 72
   100
 73
     1
 74
     0
 75
     0
 76
     0
 77
     0
 78
     0
  0
ENDTAB
  0
TABLE
  2
LTYPE
 70
     2
  0
LTYPE
  2
CONTINUOUS
 70
    64
  3
Solid line
 72
    65
 73
     0
 40
0.0
  0
LTYPE
  2
GEN
 70
    64
  3
----------------------
 72
    65
 73
     2
 40
10000000000.0
 49
0.0
 49
10000000000.0
  0
ENDTAB
  0
TABLE
  2
LAYER
 70
     2
  0
LAYER
  2
0
 70
     0
 62
     7
  6
GEN
  0
LAYER
  2
ITEM_50
 70
    64
 62
     7
  6
CONTINUOUS
  0
ENDTAB
  0
TABLE
  2
STYLE
 70
     1
  0
STYLE
  2
STANDARD
 70
     0
 40
0.0
 41
1.0
 50
0.0
 71
     0
 42
3.5
  3
ISO8
  4

  0
ENDTAB
  0
TABLE
  2
VIEW
 70
     0
  0
ENDTAB
  0
TABLE
  2
UCS
 70
     0
  0
ENDTAB
  0
TABLE
  2
APPID
 70
     1
  0
APPID
  2
ACAD
 70
    64
  0
ENDTAB
  0
TABLE
  2
DIMSTYLE
 70
     0
  0
ENDTAB
  0
ENDSEC
  0
SECTION
  2
BLOCKS
  0
ENDSEC
  0
SECTION
  2
ENTITIES
  0
ARC
  8
ITEM_50
 10
10.0
 20
115.5
 30
0.0
 40
1.6
 50
321.3751669999999
 51
38.624833
  0
LINE
  8
ITEM_50
 10
8.75
 20
113.2
 30
0.0
 11
8.75
 21
114.5012509999999
 31
0.0
  0
LINE
  8
ITEM_50
 10
8.75
 20
114.5
 30
0.0
 11
8.75
 21
114.5012509999999
 31
0.0
  0
LINE
  8
ITEM_50
 10
11.05
 20
113.0
 30
0.0
 11
8.949999999999999
 21
113.0
 31
0.0
  0
LINE
  8
ITEM_50
 10
11.25
 20
114.5012509999999
 30
0.0
 11
11.25
 21
114.5
 31
0.0
  0
LINE
  8
ITEM_50
 10
11.25
 20
118.875
 30
0.0
 11
11.25
 21
116.498749
 31
0.0
  0
ARC
  8
ITEM_50
 10
10.0
 20
115.5
 30
0.0
 40
1.6
 50
141.375167
 51
218.6248329999999
  0
LINE
  8
ITEM_50
 10
1.500000000000005
 20
96.00000000000001
 30
0.0
 11
3.5
 21
96.0
 31
0.0
  0
LINE
  8
ITEM_50
 10
4.5
 20
95.0
 30
0.0
 11
4.5
 21
94.0
 31
0.0
  0
LINE
  8
ITEM_50
 10
3.5
 20
93.0
 30
0.0
 11
2.5
 21
93.0
 31
0.0
  0
LINE
  8
ITEM_50
 10
2.0
 20
92.5
 30
0.0
 11
2.0
 21
92.5
 31
0.0
  0
LINE
  8
ITEM_50
 10
5.807611999999999
 20
90.0
 30
0.0
 11
4.5
 21
90.0
 31
0.0
  0
ARC
  8
ITEM_50
 10
4.5
 20
92.5
 30
0.0
 40
2.5
 50
180.0
 51
270.0
  0
ARC
  8
ITEM_50
 10
3.5
 20
95.0
 30
0.0
 40
1.0
 50
0.0
 51
90.0
  0
ARC
  8
ITEM_50
 10
2.5
 20
92.5
 30
0.0
 40
0.5
 50
90.0
 51
180.0
  0
LINE
  8
ITEM_50
 10
12.19999999999999
 20
92.5
 30
0.0
 11
12.19999999999999
 21
107.5
 31
0.0
  0
LINE
  8
ITEM_50
 10
5.807611999999999
 20
90.0
 30
0.0
 11
9.699999999999999
 21
90.0
 31
0.0
  0
ARC
  8
ITEM_50
 10
3.5
 20
94.0
 30
0.0
 40
1.0
 50
270.0
 51
0.0
  0
ARC
  8
ITEM_50
 10
3.5
 20
106.0
 30
0.0
 40
1.0
 50
0.0
 51
90.0
  0
ARC
  8
ITEM_50
 10
2.5
 20
107.5
 30
0.0
 40
0.5
 50
180.0
 51
270.0
  0
ARC
  8
ITEM_50
 10
3.5
 20
105.0
 30
0.0
 40
1.0
 50
270.0
 51
0.0
  0
ARC
  8
ITEM_50
 10
4.5
 20
107.5
 30
0.0
 40
2.5
 50
90.0
 51
180.0
  0
LINE
  8
ITEM_50
 10
5.807611999999999
 20
110.0
 30
0.0
 11
4.5
 21
110.0
 31
0.0
  0
LINE
  8
ITEM_50
 10
2.0
 20
107.5
 30
0.0
 11
2.0
 21
107.5
 31
0.0
  0
LINE
  8
ITEM_50
 10
3.5
 20
107.0
 30
0.0
 11
2.5
 21
107.0
 31
0.0
  0
LINE
  8
ITEM_50
 10
4.5
 20
105.0
 30
0.0
 11
4.5
 21
106.0
 31
0.0
  0
LINE
  8
ITEM_50
 10
1.499999999999994
 20
104.0
 30
0.0
 11
3.5
 21
104.0
 31
0.0
  0
ARC
  8
ITEM_50
 10
9.699999999999999
 20
92.5
 30
0.0
 40
2.5
 50
270.0
 51
0.0
  0
ARC
  8
ITEM_50
 10
9.699999999999999
 20
107.5
 30
0.0
 40
2.5
 50
0.0
 51
90.0
  0
LINE
  8
ITEM_50
 10
5.807611999999999
 20
110.0
 30
0.0
 11
9.699999999999999
 21
110.0
 31
0.0
  0
ARC
  8
ITEM_50
 10
9.699999999999999
 20
67.5
 30
0.0
 40
2.5
 50
0.0
 51
90.0
  0
ARC
  8
ITEM_50
 10
3.5
 20
66.0
 30
0.0
 40
1.0
 50
0.0
 51
90.0
  0
LINE
  8
ITEM_50
 10
5.807611999999999
 20
70.0
 30
0.0
 11
9.699999999999999
 21
70.0
 31
0.0
  0
LINE
  8
ITEM_50
 10
12.19999999999999
 20
67.5
 30
0.0
 11
12.19999999999999
 21
60.0
 31
0.0
  0
ARC
  8
ITEM_50
 10
2.5
 20
67.5
 30
0.0
 40
0.5
 50
180.0
 51
270.0
  0
ARC
  8
ITEM_50
 10
3.5
 20
65.0
 30
0.0
 40
1.0
 50
270.0
 51
0.0
  0
ARC
  8
ITEM_50
 10
4.5
 20
67.5
 30
0.0
 40
2.5
 50
90.0
 51
180.0
  0
LINE
  8
ITEM_50
 10
5.807611999999999
 20
70.0
 30
0.0
 11
4.5
 21
70.0
 31
0.0
  0
LINE
  8
ITEM_50
 10
2.0
 20
67.5
 30
0.0
 11
2.0
 21
67.5
 31
0.0
  0
LINE
  8
ITEM_50
 10
3.5
 20
67.0
 30
0.0
 11
2.5
 21
67.0
 31
0.0
  0
LINE
  8
ITEM_50
 10
4.5
 20
65.0
 30
0.0
 11
4.5
 21
66.0
 31
0.0
  0
LINE
  8
ITEM_50
 10
1.499999999999999
 20
63.99999999999998
 30
0.0
 11
3.5
 21
64.0
 31
0.0
  0
LINE
  8
ITEM_50
 10
1.5
 20
87.0
 30
0.0
 11
7.5
 21
87.0
 31
0.0
  0
LINE
  8
ITEM_50
 10
7.5
 20
84.0
 30
0.0
 11
1.25
 21
84.0
 31
0.0
  0
ARC
  8
ITEM_50
 10
7.5
 20
85.5
 30
0.0
 40
1.5
 50
270.0
 51
90.0
  0
ARC
  8
ITEM_50
 10
7.5
 20
80.0
 30
0.0
 40
1.5
 50
0.0
 51
90.0
  0
LINE
  8
ITEM_50
 10
1.25
 20
81.5
 30
0.0
 11
7.5
 21
81.5
 31
0.0
  0
ARC
  8
ITEM_50
 10
1.5
 20
88.5
 30
0.0
 40
1.5
 50
180.0
 51
270.0
  0
LINE
  8
ITEM_50
 10
46.35
 20
110.4
 30
0.0
 11
45.14999999999999
 21
110.4
 31
0.0
  0
LINE
  8
ITEM_50
 10
45.14999999999999
 20
110.4
 30
0.0
 11
44.975023
 21
108.4
 31
0.0
  0
LINE
  8
ITEM_50
 10
47.54999999999999
 20
110.4
 30
0.0
 11
47.724977
 21
108.4
 31
0.0
  0
LINE
  8
ITEM_50
 10
46.35
 20
110.4
 30
0.0
 11
47.54999999999999
 21
110.4
 31
0.0
  0
LINE
  8
ITEM_50
 10
44.975023
 20
108.4
 30
0.0
 11
42.64497699999999
 21
108.4
 31
0.0
  0
LINE
  8
ITEM_50
 10
39.895023
 20
108.4
 30
0.0
 11
37.56497699999999
 21
108.4
 31
0.0
  0
LINE
  8
ITEM_50
 10
41.27
 20
110.4
 30
0.0
 11
42.46999999999999
 21
110.4
 31
0.0
  0
LINE
  8
ITEM_50
 10
42.46999999999999
 20
110.4
 30
0.0
 11
42.64497699999999
 21
108.4
 31
0.0
  0
LINE
  8
ITEM_50
 10
40.07
 20
110.4
 30
0.0
 11
39.895023
 21
108.4
 31
0.0
  0
LINE
  8
ITEM_50
 10
41.27
 20
110.4
 30
0.0
 11
40.07
 21
110.4
 31
0.0
  0
LINE
  8
ITEM_50
 10
34.81502299999999
 20
108.4
 30
0.0
 11
32.484977
 21
108.4
 31
0.0
  0
LINE
  8
ITEM_50
 10
36.18999999999999
 20
110.4
 30
0.0
 11
37.39
 21
110.4
 31
0.0
  0
LINE
  8
ITEM_50
 10
37.39
 20
110.4
 30
0.0
 11
37.56497699999999
 21
108.4
 31
0.0
  0
LINE
  8
ITEM_50
 10
34.99
 20
110.4
 30
0.0
 11
34.81502299999999
 21
108.4
 31
0.0
  0
LINE
  8
ITEM_50
 10
36.18999999999999
 20
110.4
 30
0.0
 11
34.99
 21
110.4
 31
0.0
  0
LINE
  8
ITEM_50
 10
29.735023
 20
108.4
 30
0.0
 11
27.40497699999999
 21
108.4
 31
0.0
  0
LINE
  8
ITEM_50
 10
31.10999999999999
 20
110.4
 30
0.0
 11
32.31
 21
110.4
 31
0.0
  0
LINE
  8
ITEM_50
 10
32.31
 20
110.4
 30
0.0
 11
32.484977
 21
108.4
 31
0.0
  0
LINE
  8
ITEM_50
 10
29.91
 20
110.4
 30
0.0
 11
29.735023
 21
108.4
 31
0.0
  0
LINE
  8
ITEM_50
 10
31.10999999999999
 20
110.4
 30
0.0
 11
29.91
 21
110.4
 31
0.0
  0
LINE
  8
ITEM_50
 10
24.65502299999999
 20
108.4
 30
0.0
 11
22.324977
 21
108.4
 31
0.0
  0
LINE
  8
ITEM_50
 10
26.03
 20
110.4
 30
0.0
 11
27.23
 21
110.4
 31
0.0
  0
LINE
  8
ITEM_50
 10
27.23
 20
110.4
 30
0.0
 11
27.40497699999999
 21
108.4
 31
0.0
  0
LINE
  8
ITEM_50
 10
24.82999999999999
 20
110.4
 30
0.0
 11
24.65502299999999
 21
108.4
 31
0.0
  0
LINE
  8
ITEM_50
 10
26.03
 20
110.4
 30
0.0
 11
24.82999999999999
 21
110.4
 31
0.0
  0
LINE
  8
ITEM_50
 10
20.94999999999999
 20
110.4
 30
0.0
 11
22.14999999999999
 21
110.4
 31
0.0
  0
LINE
  8
ITEM_50
 10
22.14999999999999
 20
110.4
 30
0.0
 11
22.324977
 21
108.4
 31
0.0
  0
LINE
  8
ITEM_50
 10
19.75
 20
110.4
 30
0.0
 11
19.575023
 21
108.4
 31
0.0
  0
LINE
  8
ITEM_50
 10
20.94999999999999
 20
110.4
 30
0.0
 11
19.75
 21
110.4
 31
0.0
  0
LINE
  8
ITEM_50
 10
51.42999999999999
 20
110.4
 30
0.0
 11
50.22999999999999
 21
110.4
 31
0.0
  0
LINE
  8
ITEM_50
 10
50.22999999999999
 20
110.4
 30
0.0
 11
50.05502299999999
 21
108.4
 31
0.0
  0
LINE
  8
ITEM_50
 10
52.63
 20
110.4
 30
0.0
 11
52.804977
 21
108.4
 31
0.0
  0
LINE
  8
ITEM_50
 10
51.42999999999999
 20
110.4
 30
0.0
 11
52.63
 21
110.4
 31
0.0
  0
LINE
  8
ITEM_50
 10
50.05502299999999
 20
108.4
 30
0.0
 11
47.724977
 21
108.4
 31
0.0
  0
LINE
  8
ITEM_50
 10
56.50999999999999
 20
110.4
 30
0.0
 11
55.31
 21
110.4
 31
0.0
  0
LINE
  8
ITEM_50
 10
55.31
 20
110.4
 30
0.0
 11
55.13502299999999
 21
108.4
 31
0.0
  0
LINE
  8
ITEM_50
 10
57.71
 20
110.4
 30
0.0
 11
57.88497699999999
 21
108.4
 31
0.0
  0
LINE
  8
ITEM_50
 10
56.50999999999999
 20
110.4
 30
0.0
 11
57.71
 21
110.4
 31
0.0
  0
LINE
  8
ITEM_50
 10
55.13502299999999
 20
108.4
 30
0.0
 11
52.804977
 21
108.4
 31
0.0
  0
LINE
  8
ITEM_50
 10
61.59
 20
110.4
 30
0.0
 11
60.39
 21
110.4
 31
0.0
  0
LINE
  8
ITEM_50
 10
60.39
 20
110.4
 30
0.0
 11
60.215023
 21
108.4
 31
0.0
  0
LINE
  8
ITEM_50
 10
62.78999999999999
 20
110.4
 30
0.0
 11
62.96497699999999
 21
108.4
 31
0.0
  0
LINE
  8
ITEM_50
 10
61.59
 20
110.4
 30
0.0
 11
62.78999999999999
 21
110.4
 31
0.0
  0
LINE
  8
ITEM_50
 10
60.215023
 20
108.4
 30
0.0
 11
57.88497699999999
 21
108.4
 31
0.0
  0
LINE
  8
ITEM_50
 10
66.67
 20
110.4
 30
0.0
 11
65.46999999999999
 21
110.4
 31
0.0
  0
LINE
  8
ITEM_50
 10
65.46999999999999
 20
110.4
 30
0.0
 11
65.295023
 21
108.4
 31
0.0
  0
LINE
  8
ITEM_50
 10
67.87
 20
110.4
 30
0.0
 11
68.044977
 21
108.4
 31
0.0
  0
LINE
  8
ITEM_50
 10
66.67
 20
110.4
 30
0.0
 11
67.87
 21
110.4
 31
0.0
  0
LINE
  8
ITEM_50
 10
65.295023
 20
108.4
 30
0.0
 11
62.96497699999999
 21
108.4
 31
0.0
  0
LINE
  8
ITEM_50
 10
71.75
 20
110.4
 30
0.0
 11
70.54999999999999
 21
110.4
 31
0.0
  0
LINE
  8
ITEM_50
 10
70.54999999999999
 20
110.4
 30
0.0
 11
70.37502299999999
 21
108.4
 31
0.0
  0
LINE
  8
ITEM_50
 10
72.95
 20
110.4
 30
0.0
 11
73.124977
 21
108.4
 31
0.0
  0
LINE
  8
ITEM_50
 10
71.75
 20
110.4
 30
0.0
 11
72.95
 21
110.4
 31
0.0
  0
LINE
  8
ITEM_50
 10
70.37502299999999
 20
108.4
 30
0.0
 11
68.044977
 21
108.4
 31
0.0
  0
ARC
  8
ITEM_50
 10
198.0
 20
107.5
 30
0.0
 40
1.5
 50
90.0
 51
270.0
  0
ARC
  8
ITEM_50
 10
199.0
 20
105.0
 30
0.0
 40
1.0
 50
270.0
 51
90.0
  0
ARC
  8
ITEM_50
 10
199.0
 20
100.0
 30
0.0
 40
1.0
 50
270.0
 51
90.0
  0
ARC
  8
ITEM_50
 10
198.0
 20
102.5
 30
0.0
 40
1.5
 50
90.0
 51
270.0
  0
ARC
  8
ITEM_50
 10
199.0
 20
95.0
 30
0.0
 40
1.0
 50
270.0
 51
90.0
  0
ARC
  8
ITEM_50
 10
198.0
 20
97.5
 30
0.0
 40
1.5
 50
90.0
 51
270.0
  0
ARC
  8
ITEM_50
 10
199.0
 20
90.0
 30
0.0
 40
1.0
 50
270.0
 51
90.0
  0
ARC
  8
ITEM_50
 10
198.0
 20
92.5
 30
0.0
 40
1.5
 50
90.0
 51
270.0
  0
ARC
  8
ITEM_50
 10
199.0
 20
85.0
 30
0.0
 40
1.0
 50
270.0
 51
90.0
  0
ARC
  8
ITEM_50
 10
198.0
 20
87.5
 30
0.0
 40
1.5
 50
90.0
 51
270.0
  0
ARC
  8
ITEM_50
 10
199.0
 20
80.0
 30
0.0
 40
1.0
 50
270.0
 51
90.0
  0
ARC
  8
ITEM_50
 10
198.0
 20
82.5
 30
0.0
 40
1.5
 50
90.0
 51
270.0
  0
ARC
  8
ITEM_50
 10
199.0
 20
75.0
 30
0.0
 40
1.0
 50
270.0
 51
90.0
  0
ARC
  8
ITEM_50
 10
198.0
 20
77.5
 30
0.0
 40
1.5
 50
90.0
 51
270.0
  0
ARC
  8
ITEM_50
 10
199.0
 20
70.0
 30
0.0
 40
1.0
 50
270.0
 51
90.0
  0
ARC
  8
ITEM_50
 10
198.0
 20
72.5
 30
0.0
 40
1.5
 50
90.0
 51
270.0
  0
ARC
  8
ITEM_50
 10
199.0
 20
65.0
 30
0.0
 40
1.0
 50
270.0
 51
90.0
  0
ARC
  8
ITEM_50
 10
198.0
 20
67.5
 30
0.0
 40
1.5
 50
90.0
 51
270.0
  0
ARC
  8
ITEM_50
 10
199.0
 20
60.0
 30
0.0
 40
1.0
 50
0.0
 51
90.0
  0
ARC
  8
ITEM_50
 10
198.0
 20
62.5
 30
0.0
 40
1.5
 50
90.0
 51
270.0
  0
ARC
  8
ITEM_50
 10
199.0
 20
110.0
 30
0.0
 40
1.0
 50
270.0
 51
0.0
  0
LINE
  8
ITEM_50
 10
200.0
 20
115.969492
 30
0.0
 11
200.0
 21
112.5
 31
0.0
  0
ARC
  8
ITEM_50
 10
3.458879
 20
119.0
 30
0.0
 40
1.0
 50
90.0
 51
90.0
  0
ARC
  8
ITEM_50
 10
7.5
 20
80.0
 30
0.0
 40
1.5
 50
270.0
 51
0.0
  0
LINE
  8
ITEM_50
 10
1.0
 20
78.5
 30
0.0
 11
7.5
 21
78.5
 31
0.0
  0
ARC
  8
ITEM_50
 10
1.25
 20
82.75
 30
0.0
 40
1.25
 50
90.0
 51
270.0
  0
ARC
  8
ITEM_50
 10
1.5
 20
71.5
 30
0.0
 40
1.5
 50
90.0
 51
180.0
  0
ARC
  8
ITEM_50
 10
7.5
 20
74.5
 30
0.0
 40
1.5
 50
270.0
 51
90.0
  0
LINE
  8
ITEM_50
 10
7.5
 20
76.0
 30
0.0
 11
1.25
 21
76.0
 31
0.0
  0
LINE
  8
ITEM_50
 10
1.5
 20
73.0
 30
0.0
 11
7.5
 21
73.0
 31
0.0
  0
ARC
  8
ITEM_50
 10
1.25
 20
77.25
 30
0.0
 40
1.25
 50
90.0
 51
270.0
  0
LINE
  8
ITEM_50
 10
4.5
 20
119.0
 30
0.0
 11
4.5
 21
115.0
 31
0.0
  0
LINE
  8
ITEM_50
 10
6.5
 20
115.0
 30
0.0
 11
6.5
 21
118.875
 31
0.0
  0
LINE
  8
ITEM_50
 10
0.0
 20
116.04196
 30
0.0
 11
0.0
 21
116.0
 31
0.0
  0
ARC
  8
ITEM_50
 10
4.0
 20
116.04196
 30
0.0
 40
4.0
 50
99.59406799999999
 51
180.0
  0
ARC
  8
ITEM_50
 10
3.5
 20
119.0
 30
0.0
 40
1.0
 50
0.0
 51
99.59406799999999
  0
ARC
  8
ITEM_50
 10
7.625
 20
118.875
 30
0.0
 40
1.125
 50
0.0
 51
180.0
  0
ARC
  8
ITEM_50
 10
5.5
 20
115.0
 30
0.0
 40
1.0
 50
180.0
 51
0.0
  0
ARC
  8
ITEM_50
 10
12.375
 20
118.875
 30
0.0
 40
1.125
 50
0.0
 51
180.0
  0
ARC
  8
ITEM_50
 10
8.949999999999999
 20
113.2
 30
0.0
 40
0.2
 50
180.0
 51
270.0
  0
ARC
  8
ITEM_50
 10
11.05
 20
113.2
 30
0.0
 40
0.2
 50
270.0
 51
0.0
  0
LINE
  8
ITEM_50
 10
8.75
 20
116.498749
 30
0.0
 11
8.75
 21
118.875
 31
0.0
  0
LINE
  8
ITEM_50
 10
11.25
 20
114.5012509999999
 30
0.0
 11
11.25
 21
113.2
 31
0.0
  0
LINE
  8
ITEM_50
 10
13.5
 20
118.875
 30
0.0
 11
13.5
 21
114.5
 31
0.0
  0
LINE
  8
ITEM_50
 10
16.5
 20
114.5
 30
0.0
 11
16.5
 21
119.0
 31
0.0
  0
ARC
  8
ITEM_50
 10
15.0
 20
114.5
 30
0.0
 40
1.5
 50
180.0
 51
0.0
  0
LINE
  8
ITEM_50
 10
71.25
 20
114.5012509999999
 30
0.0
 11
71.25
 21
113.2
 31
0.0
  0
LINE
  8
ITEM_50
 10
68.75
 20
116.498749
 30
0.0
 11
68.75
 21
118.875
 31
0.0
  0
ARC
  8
ITEM_50
 10
71.04999999999999
 20
113.2
 30
0.0
 40
0.2
 50
270.0
 51
0.0
  0
ARC
  8
ITEM_50
 10
68.95
 20
113.2
 30
0.0
 40
0.2
 50
180.0
 51
270.0
  0
ARC
  8
ITEM_50
 10
70.0
 20
115.5
 30
0.0
 40
1.6
 50
141.375167
 51
218.6248329999999
  0
LINE
  8
ITEM_50
 10
71.25
 20
118.875
 30
0.0
 11
71.25
 21
116.498749
 31
0.0
  0
LINE
  8
ITEM_50
 10
71.25
 20
114.5012509999999
 30
0.0
 11
71.25
 21
114.5
 31
0.0
  0
LINE
  8
ITEM_50
 10
71.04999999999999
 20
113.0
 30
0.0
 11
68.95
 21
113.0
 31
0.0
  0
LINE
  8
ITEM_50
 10
68.75
 20
114.5
 30
0.0
 11
68.75
 21
114.5012509999999
 31
0.0
  0
LINE
  8
ITEM_50
 10
68.75
 20
113.2
 30
0.0
 11
68.75
 21
114.5012509999999
 31
0.0
  0
ARC
  8
ITEM_50
 10
70.0
 20
115.5
 30
0.0
 40
1.6
 50
321.3751669999999
 51
38.624833
  0
ARC
  8
ITEM_50
 10
67.625
 20
118.875
 30
0.0
 40
1.125
 50
0.0
 51
180.0
  0
ARC
  8
ITEM_50
 10
72.375
 20
118.875
 30
0.0
 40
1.125
 50
0.0
 51
180.0
  0
ARC
  8
ITEM_50
 10
20.0
 20
114.5
 30
0.0
 40
1.5
 50
180.0
 51
0.0
  0
LINE
  8
ITEM_50
 10
18.5
 20
114.5
 30
0.0
 11
18.5
 21
119.0
 31
0.0
  0
LINE
  8
ITEM_50
 10
21.5
 20
119.0
 30
0.0
 11
21.5
 21
114.5
 31
0.0
  0
ARC
  8
ITEM_50
 10
17.5
 20
119.0
 30
0.0
 40
1.0
 50
0.0
 51
180.0
  0
ARC
  8
ITEM_50
 10
22.5
 20
119.0
 30
0.0
 40
1.0
 50
0.0
 51
180.0
  0
LINE
  8
ITEM_50
 10
23.5
 20
114.5
 30
0.0
 11
23.5
 21
119.0
 31
0.0
  0
LINE
  8
ITEM_50
 10
26.5
 20
119.0
 30
0.0
 11
26.5
 21
114.5
 31
0.0
  0
ARC
  8
ITEM_50
 10
25.0
 20
114.5
 30
0.0
 40
1.5
 50
180.0
 51
0.0
  0
ARC
  8
ITEM_50
 10
35.0
 20
114.5
 30
0.0
 40
1.5
 50
180.0
 51
0.0
  0
LINE
  8
ITEM_50
 10
36.5
 20
119.0
 30
0.0
 11
36.5
 21
114.5
 31
0.0
  0
LINE
  8
ITEM_50
 10
33.5
 20
114.5
 30
0.0
 11
33.5
 21
119.0
 31
0.0
  0
ARC
  8
ITEM_50
 10
32.5
 20
119.0
 30
0.0
 40
1.0
 50
0.0
 51
180.0
  0
ARC
  8
ITEM_50
 10
27.5
 20
119.0
 30
0.0
 40
1.0
 50
0.0
 51
180.0
  0
LINE
  8
ITEM_50
 10
31.5
 20
119.0
 30
0.0
 11
31.5
 21
114.5
 31
0.0
  0
LINE
  8
ITEM_50
 10
28.5
 20
114.5
 30
0.0
 11
28.5
 21
119.0
 31
0.0
  0
ARC
  8
ITEM_50
 10
30.0
 20
114.5
 30
0.0
 40
1.5
 50
180.0
 51
0.0
  0
ARC
  8
ITEM_50
 10
50.0
 20
114.5
 30
0.0
 40
1.5
 50
180.0
 51
0.0
  0
LINE
  8
ITEM_50
 10
48.5
 20
114.5
 30
0.0
 11
48.5
 21
119.0
 31
0.0
  0
LINE
  8
ITEM_50
 10
51.5
 20
119.0
 30
0.0
 11
51.5
 21
114.5
 31
0.0
  0
ARC
  8
ITEM_50
 10
47.5
 20
119.0
 30
0.0
 40
1.0
 50
0.0
 51
180.0
  0
ARC
  8
ITEM_50
 10
52.5
 20
119.0
 30
0.0
 40
1.0
 50
0.0
 51
180.0
  0
LINE
  8
ITEM_50
 10
53.5
 20
114.5
 30
0.0
 11
53.5
 21
119.0
 31
0.0
  0
LINE
  8
ITEM_50
 10
56.5
 20
119.0
 30
0.0
 11
56.5
 21
114.5
 31
0.0
  0
ARC
  8
ITEM_50
 10
55.0
 20
114.5
 30
0.0
 40
1.5
 50
180.0
 51
0.0
  0
ARC
  8
ITEM_50
 10
45.0
 20
114.5
 30
0.0
 40
1.5
 50
180.0
 51
0.0
  0
LINE
  8
ITEM_50
 10
46.5
 20
119.0
 30
0.0
 11
46.5
 21
114.5
 31
0.0
  0
LINE
  8
ITEM_50
 10
43.5
 20
114.5
 30
0.0
 11
43.5
 21
119.0
 31
0.0
  0
ARC
  8
ITEM_50
 10
42.5
 20
119.0
 30
0.0
 40
1.0
 50
0.0
 51
180.0
  0
LINE
  8
ITEM_50
 10
41.5
 20
119.0
 30
0.0
 11
41.5
 21
114.5
 31
0.0
  0
LINE
  8
ITEM_50
 10
38.5
 20
114.5
 30
0.0
 11
38.5
 21
119.0
 31
0.0
  0
ARC
  8
ITEM_50
 10
40.0
 20
114.5
 30
0.0
 40
1.5
 50
180.0
 51
0.0
  0
ARC
  8
ITEM_50
 10
37.5
 20
119.0
 30
0.0
 40
1.0
 50
0.0
 51
180.0
  0
LINE
  8
ITEM_50
 10
66.5
 20
118.875
 30
0.0
 11
66.5
 21
114.5
 31
0.0
  0
ARC
  8
ITEM_50
 10
65.0
 20
114.5
 30
0.0
 40
1.5
 50
180.0
 51
0.0
  0
LINE
  8
ITEM_50
 10
63.5
 20
114.5
 30
0.0
 11
63.5
 21
119.0
 31
0.0
  0
ARC
  8
ITEM_50
 10
62.5
 20
119.0
 30
0.0
 40
1.0
 50
0.0
 51
180.0
  0
LINE
  8
ITEM_50
 10
61.5
 20
119.0
 30
0.0
 11
61.5
 21
114.5
 31
0.0
  0
ARC
  8
ITEM_50
 10
60.0
 20
114.5
 30
0.0
 40
1.5
 50
180.0
 51
0.0
  0
LINE
  8
ITEM_50
 10
58.5
 20
114.5
 30
0.0
 11
58.5
 21
119.0
 31
0.0
  0
ARC
  8
ITEM_50
 10
57.5
 20
119.0
 30
0.0
 40
1.0
 50
0.0
 51
180.0
  0
ARC
  8
ITEM_50
 10
117.5
 20
119.0
 30
0.0
 40
1.0
 50
0.0
 51
180.0
  0
LINE
  8
ITEM_50
 10
118.5
 20
114.5
 30
0.0
 11
118.5
 21
119.0
 31
0.0
  0
ARC
  8
ITEM_50
 10
120.0
 20
114.5
 30
0.0
 40
1.5
 50
180.0
 51
0.0
  0
LINE
  8
ITEM_50
 10
121.5
 20
119.0
 30
0.0
 11
121.5
 21
114.5
 31
0.0
  0
ARC
  8
ITEM_50
 10
122.5
 20
119.0
 30
0.0
 40
1.0
 50
0.0
 51
180.0
  0
LINE
  8
ITEM_50
 10
123.5
 20
114.5
 30
0.0
 11
123.5
 21
119.0
 31
0.0
  0
ARC
  8
ITEM_50
 10
125.0
 20
114.5
 30
0.0
 40
1.5
 50
180.0
 51
0.0
  0
LINE
  8
ITEM_50
 10
126.5
 20
118.875
 30
0.0
 11
126.5
 21
114.5
 31
0.0
  0
ARC
  8
ITEM_50
 10
97.5
 20
119.0
 30
0.0
 40
1.0
 50
0.0
 51
180.0
  0
ARC
  8
ITEM_50
 10
100.0
 20
114.5
 30
0.0
 40
1.5
 50
180.0
 51
0.0
  0
LINE
  8
ITEM_50
 10
98.5
 20
114.5
 30
0.0
 11
98.5
 21
119.0
 31
0.0
  0
LINE
  8
ITEM_50
 10
101.5
 20
119.0
 30
0.0
 11
101.5
 21
114.5
 31
0.0
  0
ARC
  8
ITEM_50
 10
102.5
 20
119.0
 30
0.0
 40
1.0
 50
0.0
 51
180.0
  0
LINE
  8
ITEM_50
 10
103.5
 20
114.5
 30
0.0
 11
103.5
 21
119.0
 31
0.0
  0
LINE
  8
ITEM_50
 10
106.5
 20
119.0
 30
0.0
 11
106.5
 21
114.5
 31
0.0
  0
ARC
  8
ITEM_50
 10
105.0
 20
114.5
 30
0.0
 40
1.5
 50
180.0
 51
0.0
  0
ARC
  8
ITEM_50
 10
115.0
 20
114.5
 30
0.0
 40
1.5
 50
180.0
 51
0.0
  0
LINE
  8
ITEM_50
 10
116.5
 20
119.0
 30
0.0
 11
116.5
 21
114.5
 31
0.0
  0
LINE
  8
ITEM_50
 10
113.5
 20
114.5
 30
0.0
 11
113.5
 21
119.0
 31
0.0
  0
ARC
  8
ITEM_50
 10
112.5
 20
119.0
 30
0.0
 40
1.0
 50
0.0
 51
180.0
  0
ARC
  8
ITEM_50
 10
107.5
 20
119.0
 30
0.0
 40
1.0
 50
0.0
 51
180.0
  0
LINE
  8
ITEM_50
 10
111.5
 20
119.0
 30
0.0
 11
111.5
 21
114.5
 31
0.0
  0
LINE
  8
ITEM_50
 10
108.5
 20
114.5
 30
0.0
 11
108.5
 21
119.0
 31
0.0
  0
ARC
  8
ITEM_50
 10
110.0
 20
114.5
 30
0.0
 40
1.5
 50
180.0
 51
0.0
  0
ARC
  8
ITEM_50
 10
90.0
 20
114.5
 30
0.0
 40
1.5
 50
180.0
 51
0.0
  0
LINE
  8
ITEM_50
 10
88.5
 20
114.5
 30
0.0
 11
88.5
 21
119.0
 31
0.0
  0
LINE
  8
ITEM_50
 10
91.5
 20
119.0
 30
0.0
 11
91.5
 21
114.5
 31
0.0
  0
ARC
  8
ITEM_50
 10
87.5
 20
119.0
 30
0.0
 40
1.0
 50
0.0
 51
180.0
  0
ARC
  8
ITEM_50
 10
92.5
 20
119.0
 30
0.0
 40
1.0
 50
0.0
 51
180.0
  0
LINE
  8
ITEM_50
 10
93.5
 20
114.5
 30
0.0
 11
93.5
 21
119.0
 31
0.0
  0
LINE
  8
ITEM_50
 10
96.5
 20
119.0
 30
0.0
 11
96.5
 21
114.5
 31
0.0
  0
ARC
  8
ITEM_50
 10
95.0
 20
114.5
 30
0.0
 40
1.5
 50
180.0
 51
0.0
  0
ARC
  8
ITEM_50
 10
85.0
 20
114.5
 30
0.0
 40
1.5
 50
180.0
 51
0.0
  0
LINE
  8
ITEM_50
 10
86.5
 20
119.0
 30
0.0
 11
86.5
 21
114.5
 31
0.0
  0
LINE
  8
ITEM_50
 10
83.5
 20
114.5
 30
0.0
 11
83.5
 21
119.0
 31
0.0
  0
ARC
  8
ITEM_50
 10
82.5
 20
119.0
 30
0.0
 40
1.0
 50
0.0
 51
180.0
  0
ARC
  8
ITEM_50
 10
77.5
 20
119.0
 30
0.0
 40
1.0
 50
0.0
 51
180.0
  0
LINE
  8
ITEM_50
 10
81.5
 20
119.0
 30
0.0
 11
81.5
 21
114.5
 31
0.0
  0
LINE
  8
ITEM_50
 10
78.5
 20
114.5
 30
0.0
 11
78.5
 21
119.0
 31
0.0
  0
ARC
  8
ITEM_50
 10
80.0
 20
114.5
 30
0.0
 40
1.5
 50
180.0
 51
0.0
  0
ARC
  8
ITEM_50
 10
132.375
 20
118.875
 30
0.0
 40
1.125
 50
0.0
 51
180.0
  0
ARC
  8
ITEM_50
 10
127.625
 20
118.875
 30
0.0
 40
1.125
 50
0.0
 51
180.0
  0
ARC
  8
ITEM_50
 10
130.0
 20
115.5
 30
0.0
 40
1.6
 50
321.3751669999999
 51
38.624833
  0
LINE
  8
ITEM_50
 10
128.75
 20
113.2
 30
0.0
 11
128.75
 21
114.5012509999999
 31
0.0
  0
LINE
  8
ITEM_50
 10
128.75
 20
114.5
 30
0.0
 11
128.75
 21
114.5012509999999
 31
0.0
  0
LINE
  8
ITEM_50
 10
131.05
 20
113.0
 30
0.0
 11
128.9499999999999
 21
113.0
 31
0.0
  0
LINE
  8
ITEM_50
 10
131.25
 20
114.5012509999999
 30
0.0
 11
131.25
 21
114.5
 31
0.0
  0
LINE
  8
ITEM_50
 10
131.25
 20
118.875
 30
0.0
 11
131.25
 21
116.498749
 31
0.0
  0
ARC
  8
ITEM_50
 10
130.0
 20
115.5
 30
0.0
 40
1.6
 50
141.375167
 51
218.6248329999999
  0
ARC
  8
ITEM_50
 10
128.9499999999999
 20
113.2
 30
0.0
 40
0.2
 50
180.0
 51
270.0
  0
ARC
  8
ITEM_50
 10
131.05
 20
113.2
 30
0.0
 40
0.2
 50
270.0
 51
0.0
  0
LINE
  8
ITEM_50
 10
128.75
 20
116.498749
 30
0.0
 11
128.75
 21
118.875
 31
0.0
  0
LINE
  8
ITEM_50
 10
131.25
 20
114.5012509999999
 30
0.0
 11
131.25
 21
113.2
 31
0.0
  0
ARC
  8
ITEM_50
 10
75.0
 20
114.5
 30
0.0
 40
1.5
 50
180.0
 51
0.0
  0
LINE
  8
ITEM_50
 10
76.5
 20
114.5
 30
0.0
 11
76.5
 21
119.0
 31
0.0
  0
LINE
  8
ITEM_50
 10
73.5
 20
118.875
 30
0.0
 11
73.5
 21
114.5
 31
0.0
  0
LINE
  8
ITEM_50
 10
133.5
 20
118.875
 30
0.0
 11
133.5
 21
114.5
 31
0.0
  0
LINE
  8
ITEM_50
 10
136.5
 20
114.5
 30
0.0
 11
136.5
 21
119.0
 31
0.0
  0
ARC
  8
ITEM_50
 10
135.0
 20
114.5
 30
0.0
 40
1.5
 50
180.0
 51
0.0
  0
LINE
  8
ITEM_50
 10
191.25
 20
114.5012509999999
 30
0.0
 11
191.25
 21
113.2
 31
0.0
  0
LINE
  8
ITEM_50
 10
188.75
 20
116.498749
 30
0.0
 11
188.75
 21
118.875
 31
0.0
  0
ARC
  8
ITEM_50
 10
191.05
 20
113.2
 30
0.0
 40
0.2
 50
270.0
 51
0.0
  0
ARC
  8
ITEM_50
 10
188.9499999999999
 20
113.2
 30
0.0
 40
0.2
 50
180.0
 51
270.0
  0
ARC
  8
ITEM_50
 10
190.0
 20
115.5
 30
0.0
 40
1.6
 50
141.375167
 51
218.6248329999999
  0
LINE
  8
ITEM_50
 10
191.25
 20
118.875
 30
0.0
 11
191.25
 21
116.498749
 31
0.0
  0
LINE
  8
ITEM_50
 10
191.25
 20
114.5012509999999
 30
0.0
 11
191.25
 21
114.5
 31
0.0
  0
LINE
  8
ITEM_50
 10
191.05
 20
113.0
 30
0.0
 11
188.9499999999999
 21
113.0
 31
0.0
  0
LINE
  8
ITEM_50
 10
188.75
 20
114.5
 30
0.0
 11
188.75
 21
114.5012509999999
 31
0.0
  0
LINE
  8
ITEM_50
 10
188.75
 20
113.2
 30
0.0
 11
188.75
 21
114.5012509999999
 31
0.0
  0
ARC
  8
ITEM_50
 10
190.0
 20
115.5
 30
0.0
 40
1.6
 50
321.3751669999999
 51
38.624833
  0
ARC
  8
ITEM_50
 10
187.625
 20
118.875
 30
0.0
 40
1.125
 50
0.0
 51
180.0
  0
ARC
  8
ITEM_50
 10
192.375
 20
118.875
 30
0.0
 40
1.125
 50
0.0
 51
180.0
  0
ARC
  8
ITEM_50
 10
140.0
 20
114.5
 30
0.0
 40
1.5
 50
180.0
 51
0.0
  0
LINE
  8
ITEM_50
 10
138.5
 20
114.5
 30
0.0
 11
138.5
 21
119.0
 31
0.0
  0
LINE
  8
ITEM_50
 10
141.5
 20
119.0
 30
0.0
 11
141.5
 21
114.5
 31
0.0
  0
ARC
  8
ITEM_50
 10
137.5
 20
119.0
 30
0.0
 40
1.0
 50
0.0
 51
180.0
  0
ARC
  8
ITEM_50
 10
142.5
 20
119.0
 30
0.0
 40
1.0
 50
0.0
 51
180.0
  0
LINE
  8
ITEM_50
 10
143.5
 20
114.5
 30
0.0
 11
143.5
 21
119.0
 31
0.0
  0
LINE
  8
ITEM_50
 10
146.5
 20
119.0
 30
0.0
 11
146.5
 21
114.5
 31
0.0
  0
ARC
  8
ITEM_50
 10
145.0
 20
114.5
 30
0.0
 40
1.5
 50
180.0
 51
0.0
  0
ARC
  8
ITEM_50
 10
155.0
 20
114.5
 30
0.0
 40
1.5
 50
180.0
 51
0.0
  0
LINE
  8
ITEM_50
 10
156.5
 20
119.0
 30
0.0
 11
156.5
 21
114.5
 31
0.0
  0
LINE
  8
ITEM_50
 10
153.5
 20
114.5
 30
0.0
 11
153.5
 21
119.0
 31
0.0
  0
ARC
  8
ITEM_50
 10
152.5
 20
119.0
 30
0.0
 40
1.0
 50
0.0
 51
180.0
  0
ARC
  8
ITEM_50
 10
147.5
 20
119.0
 30
0.0
 40
1.0
 50
0.0
 51
180.0
  0
LINE
  8
ITEM_50
 10
151.5
 20
119.0
 30
0.0
 11
151.5
 21
114.5
 31
0.0
  0
LINE
  8
ITEM_50
 10
148.5
 20
114.5
 30
0.0
 11
148.5
 21
119.0
 31
0.0
  0
ARC
  8
ITEM_50
 10
150.0
 20
114.5
 30
0.0
 40
1.5
 50
180.0
 51
0.0
  0
ARC
  8
ITEM_50
 10
170.0
 20
114.5
 30
0.0
 40
1.5
 50
180.0
 51
0.0
  0
LINE
  8
ITEM_50
 10
168.5
 20
114.5
 30
0.0
 11
168.5
 21
119.0
 31
0.0
  0
LINE
  8
ITEM_50
 10
171.5
 20
119.0
 30
0.0
 11
171.5
 21
114.5
 31
0.0
  0
ARC
  8
ITEM_50
 10
167.5
 20
119.0
 30
0.0
 40
1.0
 50
0.0
 51
180.0
  0
ARC
  8
ITEM_50
 10
172.5
 20
119.0
 30
0.0
 40
1.0
 50
0.0
 51
180.0
  0
LINE
  8
ITEM_50
 10
173.5
 20
114.5
 30
0.0
 11
173.5
 21
119.0
 31
0.0
  0
LINE
  8
ITEM_50
 10
176.5
 20
119.0
 30
0.0
 11
176.5
 21
114.5
 31
0.0
  0
ARC
  8
ITEM_50
 10
175.0
 20
114.5
 30
0.0
 40
1.5
 50
180.0
 51
0.0
  0
ARC
  8
ITEM_50
 10
165.0
 20
114.5
 30
0.0
 40
1.5
 50
180.0
 51
0.0
  0
LINE
  8
ITEM_50
 10
166.5
 20
119.0
 30
0.0
 11
166.5
 21
114.5
 31
0.0
  0
LINE
  8
ITEM_50
 10
163.5
 20
114.5
 30
0.0
 11
163.5
 21
119.0
 31
0.0
  0
ARC
  8
ITEM_50
 10
162.5
 20
119.0
 30
0.0
 40
1.0
 50
0.0
 51
180.0
  0
LINE
  8
ITEM_50
 10
161.5
 20
119.0
 30
0.0
 11
161.5
 21
114.5
 31
0.0
  0
LINE
  8
ITEM_50
 10
158.5
 20
114.5
 30
0.0
 11
158.5
 21
119.0
 31
0.0
  0
ARC
  8
ITEM_50
 10
160.0
 20
114.5
 30
0.0
 40
1.5
 50
180.0
 51
0.0
  0
ARC
  8
ITEM_50
 10
157.5
 20
119.0
 30
0.0
 40
1.0
 50
0.0
 51
180.0
  0
LINE
  8
ITEM_50
 10
186.5
 20
118.875
 30
0.0
 11
186.5
 21
114.5
 31
0.0
  0
ARC
  8
ITEM_50
 10
185.0
 20
114.5
 30
0.0
 40
1.5
 50
180.0
 51
0.0
  0
LINE
  8
ITEM_50
 10
183.5
 20
114.5
 30
0.0
 11
183.5
 21
119.0
 31
0.0
  0
ARC
  8
ITEM_50
 10
182.5
 20
119.0
 30
0.0
 40
1.0
 50
0.0
 51
180.0
  0
LINE
  8
ITEM_50
 10
181.5
 20
119.0
 30
0.0
 11
181.5
 21
114.5
 31
0.0
  0
ARC
  8
ITEM_50
 10
180.0
 20
114.5
 30
0.0
 40
1.5
 50
180.0
 51
0.0
  0
LINE
  8
ITEM_50
 10
178.5
 20
114.5
 30
0.0
 11
178.5
 21
119.0
 31
0.0
  0
ARC
  8
ITEM_50
 10
177.5
 20
119.0
 30
0.0
 40
1.0
 50
0.0
 51
180.0
  0
ARC
  8
ITEM_50
 10
194.5
 20
115.0
 30
0.0
 40
1.0
 50
180.0
 51
0.0
  0
ARC
  8
ITEM_50
 10
196.5
 20
119.0
 30
0.0
 40
1.0
 50
80.405932
 51
180.0
  0
ARC
  8
ITEM_50
 10
196.0
 20
116.04196
 30
0.0
 40
4.0
 50
0.0
 51
80.405932
  0
LINE
  8
ITEM_50
 10
200.0
 20
116.04196
 30
0.0
 11
200.0
 21
116.0
 31
0.0
  0
LINE
  8
ITEM_50
 10
193.5
 20
115.0
 30
0.0
 11
193.5
 21
118.875
 31
0.0
  0
LINE
  8
ITEM_50
 10
195.5
 20
119.0
 30
0.0
 11
195.5
 21
115.0
 31
0.0
  0
ARC
  8
ITEM_50
 10
196.541121
 20
119.0
 30
0.0
 40
1.0
 50
90.0
 51
90.0
  0
LINE
  8
ITEM_50
 10
198.0
 20
109.0
 30
0.0
 11
199.0
 21
109.0
 31
0.0
  0
LINE
  8
ITEM_50
 10
198.0
 20
106.0
 30
0.0
 11
199.0
 21
106.0
 31
0.0
  0
LINE
  8
ITEM_50
 10
199.0
 20
104.0
 30
0.0
 11
198.0
 21
104.0
 31
0.0
  0
LINE
  8
ITEM_50
 10
198.0
 20
101.0
 30
0.0
 11
199.0
 21
101.0
 31
0.0
  0
LINE
  8
ITEM_50
 10
198.0
 20
99.0
 30
0.0
 11
199.0
 21
99.0
 31
0.0
  0
LINE
  8
ITEM_50
 10
198.0
 20
96.0
 30
0.0
 11
199.0
 21
96.0
 31
0.0
  0
LINE
  8
ITEM_50
 10
199.0
 20
94.0
 30
0.0
 11
198.0
 21
94.0
 31
0.0
  0
LINE
  8
ITEM_50
 10
198.0
 20
91.0
 30
0.0
 11
199.0
 21
91.0
 31
0.0
  0
LINE
  8
ITEM_50
 10
199.0
 20
89.0
 30
0.0
 11
198.0
 21
89.0
 31
0.0
  0
LINE
  8
ITEM_50
 10
198.0
 20
86.0
 30
0.0
 11
199.0
 21
86.0
 31
0.0
  0
LINE
  8
ITEM_50
 10
199.0
 20
84.0
 30
0.0
 11
198.0
 21
84.0
 31
0.0
  0
LINE
  8
ITEM_50
 10
198.0
 20
81.0
 30
0.0
 11
199.0
 21
81.0
 31
0.0
  0
LINE
  8
ITEM_50
 10
199.0
 20
79.0
 30
0.0
 11
198.0
 21
79.0
 31
0.0
  0
LINE
  8
ITEM_50
 10
198.0
 20
76.0
 30
0.0
 11
199.0
 21
76.0
 31
0.0
  0
LINE
  8
ITEM_50
 10
199.0
 20
74.0
 30
0.0
 11
198.0
 21
74.0
 31
0.0
  0
LINE
  8
ITEM_50
 10
198.0
 20
71.0
 30
0.0
 11
199.0
 21
71.0
 31
0.0
  0
LINE
  8
ITEM_50
 10
199.0
 20
69.0
 30
0.0
 11
198.0
 21
69.0
 31
0.0
  0
LINE
  8
ITEM_50
 10
198.0
 20
66.0
 30
0.0
 11
199.0
 21
66.0
 31
0.0
  0
LINE
  8
ITEM_50
 10
199.0
 20
64.0
 30
0.0
 11
198.0
 21
64.0
 31
0.0
  0
LINE
  8
ITEM_50
 10
198.0
 20
61.0
 30
0.0
 11
199.0
 21
61.0
 31
0.0
  0
LINE
  8
ITEM_50
 10
200.0
 20
110.0
 30
0.0
 11
200.0
 21
112.5
 31
0.0
  0
ARC
  8
ITEM_50
 10
9.699999999999999
 20
92.5
 30
0.0
 40
5.0
 50
297.8181389999999
 51
0.0
  0
LINE
  8
ITEM_50
 10
14.69999999999999
 20
92.5
 30
0.0
 11
14.69999999999999
 21
104.4
 31
0.0
  0
LINE
  8
ITEM_50
 10
19.575023
 20
108.4
 30
0.0
 11
18.69999999999999
 21
108.4
 31
0.0
  0
ARC
  8
ITEM_50
 10
18.69999999999999
 20
104.4
 30
0.0
 40
4.0
 50
90.0
 51
180.0
  0
LINE
  8
ITEM_50
 10
11.5
 20
87.19339999999999
 30
0.0
 11
11.5
 21
72.8066
 31
0.0
  0
ARC
  8
ITEM_50
 10
12.5
 20
87.19339999999999
 30
0.0
 40
1.0
 50
117.8181389999999
 51
180.0
  0
ARC
  8
ITEM_50
 10
9.699999999999999
 20
67.5
 30
0.0
 40
5.0
 50
0.0
 51
62.18186099999999
  0
ARC
  8
ITEM_50
 10
12.5
 20
72.8066
 30
0.0
 40
1.0
 50
180.0
 51
242.1818609999999
  0
LINE
  8
ITEM_50
 10
14.69999999999999
 20
67.5
 30
0.0
 11
14.69999999999999
 21
60.0
 31
0.0
  0
LINE
  8
ITEM_50
 10
111.0150229999999
 20
108.4
 30
0.0
 11
108.684977
 21
108.4
 31
0.0
  0
LINE
  8
ITEM_50
 10
112.39
 20
110.4
 30
0.0
 11
113.59
 21
110.4
 31
0.0
  0
LINE
  8
ITEM_50
 10
113.59
 20
110.4
 30
0.0
 11
113.764977
 21
108.4
 31
0.0
  0
LINE
  8
ITEM_50
 10
111.1899999999999
 20
110.4
 30
0.0
 11
111.0150229999999
 21
108.4
 31
0.0
  0
LINE
  8
ITEM_50
 10
112.39
 20
110.4
 30
0.0
 11
111.1899999999999
 21
110.4
 31
0.0
  0
LINE
  8
ITEM_50
 10
105.935023
 20
108.4
 30
0.0
 11
103.604977
 21
108.4
 31
0.0
  0
LINE
  8
ITEM_50
 10
107.31
 20
110.4
 30
0.0
 11
108.51
 21
110.4
 31
0.0
  0
LINE
  8
ITEM_50
 10
108.51
 20
110.4
 30
0.0
 11
108.684977
 21
108.4
 31
0.0
  0
LINE
  8
ITEM_50
 10
106.1099999999999
 20
110.4
 30
0.0
 11
105.935023
 21
108.4
 31
0.0
  0
LINE
  8
ITEM_50
 10
107.31
 20
110.4
 30
0.0
 11
106.1099999999999
 21
110.4
 31
0.0
  0
LINE
  8
ITEM_50
 10
100.855023
 20
108.4
 30
0.0
 11
98.524977
 21
108.4
 31
0.0
  0
LINE
  8
ITEM_50
 10
102.23
 20
110.4
 30
0.0
 11
103.43
 21
110.4
 31
0.0
  0
LINE
  8
ITEM_50
 10
103.43
 20
110.4
 30
0.0
 11
103.604977
 21
108.4
 31
0.0
  0
LINE
  8
ITEM_50
 10
101.03
 20
110.4
 30
0.0
 11
100.855023
 21
108.4
 31
0.0
  0
LINE
  8
ITEM_50
 10
102.23
 20
110.4
 30
0.0
 11
101.03
 21
110.4
 31
0.0
  0
LINE
  8
ITEM_50
 10
95.775023
 20
108.4
 30
0.0
 11
93.44497699999999
 21
108.4
 31
0.0
  0
LINE
  8
ITEM_50
 10
97.15
 20
110.4
 30
0.0
 11
98.34999999999999
 21
110.4
 31
0.0
  0
LINE
  8
ITEM_50
 10
98.34999999999999
 20
110.4
 30
0.0
 11
98.524977
 21
108.4
 31
0.0
  0
LINE
  8
ITEM_50
 10
95.95
 20
110.4
 30
0.0
 11
95.775023
 21
108.4
 31
0.0
  0
LINE
  8
ITEM_50
 10
97.15
 20
110.4
 30
0.0
 11
95.95
 21
110.4
 31
0.0
  0
LINE
  8
ITEM_50
 10
90.695023
 20
108.4
 30
0.0
 11
88.36497699999999
 21
108.4
 31
0.0
  0
LINE
  8
ITEM_50
 10
92.06999999999999
 20
110.4
 30
0.0
 11
93.26999999999999
 21
110.4
 31
0.0
  0
LINE
  8
ITEM_50
 10
93.26999999999999
 20
110.4
 30
0.0
 11
93.44497699999999
 21
108.4
 31
0.0
  0
LINE
  8
ITEM_50
 10
90.87
 20
110.4
 30
0.0
 11
90.695023
 21
108.4
 31
0.0
  0
LINE
  8
ITEM_50
 10
92.06999999999999
 20
110.4
 30
0.0
 11
90.87
 21
110.4
 31
0.0
  0
LINE
  8
ITEM_50
 10
76.82999999999999
 20
110.4
 30
0.0
 11
75.62999999999999
 21
110.4
 31
0.0
  0
LINE
  8
ITEM_50
 10
75.62999999999999
 20
110.4
 30
0.0
 11
75.45502299999999
 21
108.4
 31
0.0
  0
LINE
  8
ITEM_50
 10
78.03
 20
110.4
 30
0.0
 11
78.20497699999999
 21
108.4
 31
0.0
  0
LINE
  8
ITEM_50
 10
76.82999999999999
 20
110.4
 30
0.0
 11
78.03
 21
110.4
 31
0.0
  0
LINE
  8
ITEM_50
 10
75.45502299999999
 20
108.4
 30
0.0
 11
73.124977
 21
108.4
 31
0.0
  0
LINE
  8
ITEM_50
 10
81.90999999999999
 20
110.4
 30
0.0
 11
80.70999999999999
 21
110.4
 31
0.0
  0
LINE
  8
ITEM_50
 10
80.70999999999999
 20
110.4
 30
0.0
 11
80.53502299999999
 21
108.4
 31
0.0
  0
LINE
  8
ITEM_50
 10
83.10999999999999
 20
110.4
 30
0.0
 11
83.28497699999999
 21
108.4
 31
0.0
  0
LINE
  8
ITEM_50
 10
81.90999999999999
 20
110.4
 30
0.0
 11
83.10999999999999
 21
110.4
 31
0.0
  0
LINE
  8
ITEM_50
 10
80.53502299999999
 20
108.4
 30
0.0
 11
78.20497699999999
 21
108.4
 31
0.0
  0
LINE
  8
ITEM_50
 10
85.61502299999999
 20
108.4
 30
0.0
 11
83.28497699999999
 21
108.4
 31
0.0
  0
LINE
  8
ITEM_50
 10
86.98999999999999
 20
110.4
 30
0.0
 11
88.18999999999999
 21
110.4
 31
0.0
  0
LINE
  8
ITEM_50
 10
88.18999999999999
 20
110.4
 30
0.0
 11
88.36497699999999
 21
108.4
 31
0.0
  0
LINE
  8
ITEM_50
 10
85.79
 20
110.4
 30
0.0
 11
85.61502299999999
 21
108.4
 31
0.0
  0
LINE
  8
ITEM_50
 10
86.98999999999999
 20
110.4
 30
0.0
 11
85.79
 21
110.4
 31
0.0
  0
LINE
  8
ITEM_50
 10
168.27
 20
110.4
 30
0.0
 11
167.0699999999999
 21
110.4
 31
0.0
  0
LINE
  8
ITEM_50
 10
167.0699999999999
 20
110.4
 30
0.0
 11
166.895023
 21
108.4
 31
0.0
  0
LINE
  8
ITEM_50
 10
169.4699999999999
 20
110.4
 30
0.0
 11
169.644977
 21
108.4
 31
0.0
  0
LINE
  8
ITEM_50
 10
168.27
 20
110.4
 30
0.0
 11
169.4699999999999
 21
110.4
 31
0.0
  0
LINE
  8
ITEM_50
 10
166.895023
 20
108.4
 30
0.0
 11
164.5649769999999
 21
108.4
 31
0.0
  0
LINE
  8
ITEM_50
 10
161.8150229999999
 20
108.4
 30
0.0
 11
159.4849769999999
 21
108.4
 31
0.0
  0
LINE
  8
ITEM_50
 10
163.1899999999999
 20
110.4
 30
0.0
 11
164.3899999999999
 21
110.4
 31
0.0
  0
LINE
  8
ITEM_50
 10
164.3899999999999
 20
110.4
 30
0.0
 11
164.5649769999999
 21
108.4
 31
0.0
  0
LINE
  8
ITEM_50
 10
161.99
 20
110.4
 30
0.0
 11
161.8150229999999
 21
108.4
 31
0.0
  0
LINE
  8
ITEM_50
 10
163.1899999999999
 20
110.4
 30
0.0
 11
161.99
 21
110.4
 31
0.0
  0
LINE
  8
ITEM_50
 10
156.735023
 20
108.4
 30
0.0
 11
154.404977
 21
108.4
 31
0.0
  0
LINE
  8
ITEM_50
 10
158.11
 20
110.4
 30
0.0
 11
159.31
 21
110.4
 31
0.0
  0
LINE
  8
ITEM_50
 10
159.31
 20
110.4
 30
0.0
 11
159.4849769999999
 21
108.4
 31
0.0
  0
LINE
  8
ITEM_50
 10
156.9099999999999
 20
110.4
 30
0.0
 11
156.735023
 21
108.4
 31
0.0
  0
LINE
  8
ITEM_50
 10
158.11
 20
110.4
 30
0.0
 11
156.9099999999999
 21
110.4
 31
0.0
  0
LINE
  8
ITEM_50
 10
173.3499999999999
 20
110.4
 30
0.0
 11
172.15
 21
110.4
 31
0.0
  0
LINE
  8
ITEM_50
 10
172.15
 20
110.4
 30
0.0
 11
171.9750229999999
 21
108.4
 31
0.0
  0
LINE
  8
ITEM_50
 10
174.55
 20
110.4
 30
0.0
 11
174.7249769999999
 21
108.4
 31
0.0
  0
LINE
  8
ITEM_50
 10
173.3499999999999
 20
110.4
 30
0.0
 11
174.55
 21
110.4
 31
0.0
  0
LINE
  8
ITEM_50
 10
171.9750229999999
 20
108.4
 30
0.0
 11
169.644977
 21
108.4
 31
0.0
  0
LINE
  8
ITEM_50
 10
178.43
 20
110.4
 30
0.0
 11
177.2299999999999
 21
110.4
 31
0.0
  0
LINE
  8
ITEM_50
 10
177.2299999999999
 20
110.4
 30
0.0
 11
177.055023
 21
108.4
 31
0.0
  0
LINE
  8
ITEM_50
 10
179.6299999999999
 20
110.4
 30
0.0
 11
179.804977
 21
108.4
 31
0.0
  0
LINE
  8
ITEM_50
 10
178.43
 20
110.4
 30
0.0
 11
179.6299999999999
 21
110.4
 31
0.0
  0
LINE
  8
ITEM_50
 10
177.055023
 20
108.4
 30
0.0
 11
174.7249769999999
 21
108.4
 31
0.0
  0
LINE
  8
ITEM_50
 10
183.5099999999999
 20
110.4
 30
0.0
 11
182.31
 21
110.4
 31
0.0
  0
LINE
  8
ITEM_50
 10
182.31
 20
110.4
 30
0.0
 11
182.1350229999999
 21
108.4
 31
0.0
  0
LINE
  8
ITEM_50
 10
184.71
 20
110.4
 30
0.0
 11
184.8849769999999
 21
108.4
 31
0.0
  0
LINE
  8
ITEM_50
 10
183.5099999999999
 20
110.4
 30
0.0
 11
184.71
 21
110.4
 31
0.0
  0
LINE
  8
ITEM_50
 10
182.1350229999999
 20
108.4
 30
0.0
 11
179.804977
 21
108.4
 31
0.0
  0
LINE
  8
ITEM_50
 10
188.59
 20
110.4
 30
0.0
 11
187.3899999999999
 21
110.4
 31
0.0
  0
LINE
  8
ITEM_50
 10
187.3899999999999
 20
110.4
 30
0.0
 11
187.215023
 21
108.4
 31
0.0
  0
LINE
  8
ITEM_50
 10
189.7899999999999
 20
110.4
 30
0.0
 11
189.964977
 21
108.4
 31
0.0
  0
LINE
  8
ITEM_50
 10
188.59
 20
110.4
 30
0.0
 11
189.7899999999999
 21
110.4
 31
0.0
  0
LINE
  8
ITEM_50
 10
187.215023
 20
108.4
 30
0.0
 11
184.8849769999999
 21
108.4
 31
0.0
  0
LINE
  8
ITEM_50
 10
190.0
 20
108.4
 30
0.0
 11
189.964977
 21
108.4
 31
0.0
  0
LINE
  8
ITEM_50
 10
151.6550229999999
 20
108.4
 30
0.0
 11
149.3249769999999
 21
108.4
 31
0.0
  0
LINE
  8
ITEM_50
 10
153.03
 20
110.4
 30
0.0
 11
154.2299999999999
 21
110.4
 31
0.0
  0
LINE
  8
ITEM_50
 10
154.2299999999999
 20
110.4
 30
0.0
 11
154.404977
 21
108.4
 31
0.0
  0
LINE
  8
ITEM_50
 10
151.83
 20
110.4
 30
0.0
 11
151.6550229999999
 21
108.4
 31
0.0
  0
LINE
  8
ITEM_50
 10
153.03
 20
110.4
 30
0.0
 11
151.83
 21
110.4
 31
0.0
  0
LINE
  8
ITEM_50
 10
146.5750229999999
 20
108.4
 30
0.0
 11
144.244977
 21
108.4
 31
0.0
  0
LINE
  8
ITEM_50
 10
147.9499999999999
 20
110.4
 30
0.0
 11
149.15
 21
110.4
 31
0.0
  0
LINE
  8
ITEM_50
 10
149.15
 20
110.4
 30
0.0
 11
149.3249769999999
 21
108.4
 31
0.0
  0
LINE
  8
ITEM_50
 10
146.75
 20
110.4
 30
0.0
 11
146.5750229999999
 21
108.4
 31
0.0
  0
LINE
  8
ITEM_50
 10
147.9499999999999
 20
110.4
 30
0.0
 11
146.75
 21
110.4
 31
0.0
  0
LINE
  8
ITEM_50
 10
141.495023
 20
108.4
 30
0.0
 11
139.1649769999999
 21
108.4
 31
0.0
  0
LINE
  8
ITEM_50
 10
142.87
 20
110.4
 30
0.0
 11
144.0699999999999
 21
110.4
 31
0.0
  0
LINE
  8
ITEM_50
 10
144.0699999999999
 20
110.4
 30
0.0
 11
144.244977
 21
108.4
 31
0.0
  0
LINE
  8
ITEM_50
 10
141.6699999999999
 20
110.4
 30
0.0
 11
141.495023
 21
108.4
 31
0.0
  0
LINE
  8
ITEM_50
 10
142.87
 20
110.4
 30
0.0
 11
141.6699999999999
 21
110.4
 31
0.0
  0
LINE
  8
ITEM_50
 10
136.4150229999999
 20
108.4
 30
0.0
 11
134.084977
 21
108.4
 31
0.0
  0
LINE
  8
ITEM_50
 10
137.7899999999999
 20
110.4
 30
0.0
 11
138.99
 21
110.4
 31
0.0
  0
LINE
  8
ITEM_50
 10
138.99
 20
110.4
 30
0.0
 11
139.1649769999999
 21
108.4
 31
0.0
  0
LINE
  8
ITEM_50
 10
136.59
 20
110.4
 30
0.0
 11
136.4150229999999
 21
108.4
 31
0.0
  0
LINE
  8
ITEM_50
 10
137.7899999999999
 20
110.4
 30
0.0
 11
136.59
 21
110.4
 31
0.0
  0
LINE
  8
ITEM_50
 10
131.335023
 20
108.4
 30
0.0
 11
129.0049769999999
 21
108.4
 31
0.0
  0
LINE
  8
ITEM_50
 10
132.71
 20
110.4
 30
0.0
 11
133.9099999999999
 21
110.4
 31
0.0
  0
LINE
  8
ITEM_50
 10
133.9099999999999
 20
110.4
 30
0.0
 11
134.084977
 21
108.4
 31
0.0
  0
LINE
  8
ITEM_50
 10
131.5099999999999
 20
110.4
 30
0.0
 11
131.335023
 21
108.4
 31
0.0
  0
LINE
  8
ITEM_50
 10
132.71
 20
110.4
 30
0.0
 11
131.5099999999999
 21
110.4
 31
0.0
  0
LINE
  8
ITEM_50
 10
117.4699999999999
 20
110.4
 30
0.0
 11
116.2699999999999
 21
110.4
 31
0.0
  0
LINE
  8
ITEM_50
 10
116.2699999999999
 20
110.4
 30
0.0
 11
116.0950229999999
 21
108.4
 31
0.0
  0
LINE
  8
ITEM_50
 10
118.67
 20
110.4
 30
0.0
 11
118.844977
 21
108.4
 31
0.0
  0
LINE
  8
ITEM_50
 10
117.4699999999999
 20
110.4
 30
0.0
 11
118.67
 21
110.4
 31
0.0
  0
LINE
  8
ITEM_50
 10
116.0950229999999
 20
108.4
 30
0.0
 11
113.764977
 21
108.4
 31
0.0
  0
LINE
  8
ITEM_50
 10
122.5499999999999
 20
110.4
 30
0.0
 11
121.3499999999999
 21
110.4
 31
0.0
  0
LINE
  8
ITEM_50
 10
121.3499999999999
 20
110.4
 30
0.0
 11
121.1750229999999
 21
108.4
 31
0.0
  0
LINE
  8
ITEM_50
 10
123.75
 20
110.4
 30
0.0
 11
123.9249769999999
 21
108.4
 31
0.0
  0
LINE
  8
ITEM_50
 10
122.5499999999999
 20
110.4
 30
0.0
 11
123.75
 21
110.4
 31
0.0
  0
LINE
  8
ITEM_50
 10
121.1750229999999
 20
108.4
 30
0.0
 11
118.844977
 21
108.4
 31
0.0
  0
LINE
  8
ITEM_50
 10
126.2550229999999
 20
108.4
 30
0.0
 11
123.9249769999999
 21
108.4
 31
0.0
  0
LINE
  8
ITEM_50
 10
127.6299999999999
 20
110.4
 30
0.0
 11
128.83
 21
110.4
 31
0.0
  0
LINE
  8
ITEM_50
 10
128.83
 20
110.4
 30
0.0
 11
129.0049769999999
 21
108.4
 31
0.0
  0
LINE
  8
ITEM_50
 10
126.43
 20
110.4
 30
0.0
 11
126.2550229999999
 21
108.4
 31
0.0
  0
LINE
  8
ITEM_50
 10
127.6299999999999
 20
110.4
 30
0.0
 11
126.43
 21
110.4
 31
0.0
  0
LINE
  8
ITEM_50
 10
194.0
 20
104.4
 30
0.0
 11
194.0
 21
60.0
 31
0.0
  0
ARC
  8
ITEM_50
 10
190.0
 20
104.4
 30
0.0
 40
4.0
 50
0.0
 51
90.0
  0
ARC
  8
ITEM_50
 10
190.0
 20
15.59999999999999
 30
0.0
 40
4.0
 50
270.0
 51
0.0
  0
LINE
  8
ITEM_50
 10
194.0
 20
15.59999999999999
 30
0.0
 11
194.0
 21
60.0
 31
0.0
  0
LINE
  8
ITEM_50
 10
127.6299999999999
 20
9.599999999999999
 30
0.0
 11
126.43
 21
9.599999999999999
 31
0.0
  0
LINE
  8
ITEM_50
 10
126.43
 20
9.599999999999999
 30
0.0
 11
126.2550229999999
 21
11.59999999999999
 31
0.0
  0
LINE
  8
ITEM_50
 10
128.83
 20
9.599999999999999
 30
0.0
 11
129.0049769999999
 21
11.59999999999999
 31
0.0
  0
LINE
  8
ITEM_50
 10
127.6299999999999
 20
9.599999999999999
 30
0.0
 11
128.83
 21
9.599999999999999
 31
0.0
  0
LINE
  8
ITEM_50
 10
126.2550229999999
 20
11.59999999999999
 30
0.0
 11
123.9249769999999
 21
11.59999999999999
 31
0.0
  0
LINE
  8
ITEM_50
 10
121.1750229999999
 20
11.59999999999999
 30
0.0
 11
118.844977
 21
11.59999999999999
 31
0.0
  0
LINE
  8
ITEM_50
 10
122.5499999999999
 20
9.599999999999999
 30
0.0
 11
123.75
 21
9.599999999999999
 31
0.0
  0
LINE
  8
ITEM_50
 10
123.75
 20
9.599999999999999
 30
0.0
 11
123.9249769999999
 21
11.59999999999999
 31
0.0
  0
LINE
  8
ITEM_50
 10
121.3499999999999
 20
9.599999999999999
 30
0.0
 11
121.1750229999999
 21
11.59999999999999
 31
0.0
  0
LINE
  8
ITEM_50
 10
122.5499999999999
 20
9.599999999999999
 30
0.0
 11
121.3499999999999
 21
9.599999999999999
 31
0.0
  0
LINE
  8
ITEM_50
 10
116.0950229999999
 20
11.59999999999999
 30
0.0
 11
113.764977
 21
11.59999999999999
 31
0.0
  0
LINE
  8
ITEM_50
 10
117.4699999999999
 20
9.599999999999999
 30
0.0
 11
118.67
 21
9.599999999999999
 31
0.0
  0
LINE
  8
ITEM_50
 10
118.67
 20
9.599999999999999
 30
0.0
 11
118.844977
 21
11.59999999999999
 31
0.0
  0
LINE
  8
ITEM_50
 10
116.2699999999999
 20
9.599999999999999
 30
0.0
 11
116.0950229999999
 21
11.59999999999999
 31
0.0
  0
LINE
  8
ITEM_50
 10
117.4699999999999
 20
9.599999999999999
 30
0.0
 11
116.2699999999999
 21
9.599999999999999
 31
0.0
  0
LINE
  8
ITEM_50
 10
132.71
 20
9.599999999999999
 30
0.0
 11
131.5099999999999
 21
9.599999999999999
 31
0.0
  0
LINE
  8
ITEM_50
 10
131.5099999999999
 20
9.599999999999999
 30
0.0
 11
131.335023
 21
11.59999999999999
 31
0.0
  0
LINE
  8
ITEM_50
 10
133.9099999999999
 20
9.599999999999999
 30
0.0
 11
134.084977
 21
11.59999999999999
 31
0.0
  0
LINE
  8
ITEM_50
 10
132.71
 20
9.599999999999999
 30
0.0
 11
133.9099999999999
 21
9.599999999999999
 31
0.0
  0
LINE
  8
ITEM_50
 10
131.335023
 20
11.59999999999999
 30
0.0
 11
129.0049769999999
 21
11.59999999999999
 31
0.0
  0
LINE
  8
ITEM_50
 10
137.7899999999999
 20
9.599999999999999
 30
0.0
 11
136.59
 21
9.599999999999999
 31
0.0
  0
LINE
  8
ITEM_50
 10
136.59
 20
9.599999999999999
 30
0.0
 11
136.4150229999999
 21
11.59999999999999
 31
0.0
  0
LINE
  8
ITEM_50
 10
138.99
 20
9.599999999999999
 30
0.0
 11
139.1649769999999
 21
11.59999999999999
 31
0.0
  0
LINE
  8
ITEM_50
 10
137.7899999999999
 20
9.599999999999999
 30
0.0
 11
138.99
 21
9.599999999999999
 31
0.0
  0
LINE
  8
ITEM_50
 10
136.4150229999999
 20
11.59999999999999
 30
0.0
 11
134.084977
 21
11.59999999999999
 31
0.0
  0
LINE
  8
ITEM_50
 10
142.87
 20
9.599999999999999
 30
0.0
 11
141.6699999999999
 21
9.599999999999999
 31
0.0
  0
LINE
  8
ITEM_50
 10
141.6699999999999
 20
9.599999999999999
 30
0.0
 11
141.495023
 21
11.59999999999999
 31
0.0
  0
LINE
  8
ITEM_50
 10
144.0699999999999
 20
9.599999999999999
 30
0.0
 11
144.244977
 21
11.59999999999999
 31
0.0
  0
LINE
  8
ITEM_50
 10
142.87
 20
9.599999999999999
 30
0.0
 11
144.0699999999999
 21
9.599999999999999
 31
0.0
  0
LINE
  8
ITEM_50
 10
141.495023
 20
11.59999999999999
 30
0.0
 11
139.1649769999999
 21
11.59999999999999
 31
0.0
  0
LINE
  8
ITEM_50
 10
147.9499999999999
 20
9.599999999999999
 30
0.0
 11
146.75
 21
9.599999999999999
 31
0.0
  0
LINE
  8
ITEM_50
 10
146.75
 20
9.599999999999999
 30
0.0
 11
146.5750229999999
 21
11.59999999999999
 31
0.0
  0
LINE
  8
ITEM_50
 10
149.15
 20
9.599999999999999
 30
0.0
 11
149.3249769999999
 21
11.59999999999999
 31
0.0
  0
LINE
  8
ITEM_50
 10
147.9499999999999
 20
9.599999999999999
 30
0.0
 11
149.15
 21
9.599999999999999
 31
0.0
  0
LINE
  8
ITEM_50
 10
146.5750229999999
 20
11.59999999999999
 30
0.0
 11
144.244977
 21
11.59999999999999
 31
0.0
  0
LINE
  8
ITEM_50
 10
153.03
 20
9.599999999999999
 30
0.0
 11
151.83
 21
9.599999999999999
 31
0.0
  0
LINE
  8
ITEM_50
 10
151.83
 20
9.599999999999999
 30
0.0
 11
151.6550229999999
 21
11.59999999999999
 31
0.0
  0
LINE
  8
ITEM_50
 10
154.2299999999999
 20
9.599999999999999
 30
0.0
 11
154.404977
 21
11.59999999999999
 31
0.0
  0
LINE
  8
ITEM_50
 10
153.03
 20
9.599999999999999
 30
0.0
 11
154.2299999999999
 21
9.599999999999999
 31
0.0
  0
LINE
  8
ITEM_50
 10
151.6550229999999
 20
11.59999999999999
 30
0.0
 11
149.3249769999999
 21
11.59999999999999
 31
0.0
  0
LINE
  8
ITEM_50
 10
190.0
 20
11.59999999999999
 30
0.0
 11
189.964977
 21
11.59999999999999
 31
0.0
  0
LINE
  8
ITEM_50
 10
187.215023
 20
11.59999999999999
 30
0.0
 11
184.8849769999999
 21
11.59999999999999
 31
0.0
  0
LINE
  8
ITEM_50
 10
188.59
 20
9.599999999999999
 30
0.0
 11
189.7899999999999
 21
9.599999999999999
 31
0.0
  0
LINE
  8
ITEM_50
 10
189.7899999999999
 20
9.599999999999999
 30
0.0
 11
189.964977
 21
11.59999999999999
 31
0.0
  0
LINE
  8
ITEM_50
 10
187.3899999999999
 20
9.599999999999999
 30
0.0
 11
187.215023
 21
11.59999999999999
 31
0.0
  0
LINE
  8
ITEM_50
 10
188.59
 20
9.599999999999999
 30
0.0
 11
187.3899999999999
 21
9.599999999999999
 31
0.0
  0
LINE
  8
ITEM_50
 10
182.1350229999999
 20
11.59999999999999
 30
0.0
 11
179.804977
 21
11.59999999999999
 31
0.0
  0
LINE
  8
ITEM_50
 10
183.5099999999999
 20
9.599999999999999
 30
0.0
 11
184.71
 21
9.599999999999999
 31
0.0
  0
LINE
  8
ITEM_50
 10
184.71
 20
9.599999999999999
 30
0.0
 11
184.8849769999999
 21
11.59999999999999
 31
0.0
  0
LINE
  8
ITEM_50
 10
182.31
 20
9.599999999999999
 30
0.0
 11
182.1350229999999
 21
11.59999999999999
 31
0.0
  0
LINE
  8
ITEM_50
 10
183.5099999999999
 20
9.599999999999999
 30
0.0
 11
182.31
 21
9.599999999999999
 31
0.0
  0
LINE
  8
ITEM_50
 10
177.055023
 20
11.59999999999999
 30
0.0
 11
174.7249769999999
 21
11.59999999999999
 31
0.0
  0
LINE
  8
ITEM_50
 10
178.43
 20
9.599999999999999
 30
0.0
 11
179.6299999999999
 21
9.599999999999999
 31
0.0
  0
LINE
  8
ITEM_50
 10
179.6299999999999
 20
9.599999999999999
 30
0.0
 11
179.804977
 21
11.59999999999999
 31
0.0
  0
LINE
  8
ITEM_50
 10
177.2299999999999
 20
9.599999999999999
 30
0.0
 11
177.055023
 21
11.59999999999999
 31
0.0
  0
LINE
  8
ITEM_50
 10
178.43
 20
9.599999999999999
 30
0.0
 11
177.2299999999999
 21
9.599999999999999
 31
0.0
  0
LINE
  8
ITEM_50
 10
171.9750229999999
 20
11.59999999999999
 30
0.0
 11
169.644977
 21
11.59999999999999
 31
0.0
  0
LINE
  8
ITEM_50
 10
173.3499999999999
 20
9.599999999999999
 30
0.0
 11
174.55
 21
9.599999999999999
 31
0.0
  0
LINE
  8
ITEM_50
 10
174.55
 20
9.599999999999999
 30
0.0
 11
174.7249769999999
 21
11.59999999999999
 31
0.0
  0
LINE
  8
ITEM_50
 10
172.15
 20
9.599999999999999
 30
0.0
 11
171.9750229999999
 21
11.59999999999999
 31
0.0
  0
LINE
  8
ITEM_50
 10
173.3499999999999
 20
9.599999999999999
 30
0.0
 11
172.15
 21
9.599999999999999
 31
0.0
  0
LINE
  8
ITEM_50
 10
158.11
 20
9.599999999999999
 30
0.0
 11
156.9099999999999
 21
9.599999999999999
 31
0.0
  0
LINE
  8
ITEM_50
 10
156.9099999999999
 20
9.599999999999999
 30
0.0
 11
156.735023
 21
11.59999999999999
 31
0.0
  0
LINE
  8
ITEM_50
 10
159.31
 20
9.599999999999999
 30
0.0
 11
159.4849769999999
 21
11.59999999999999
 31
0.0
  0
LINE
  8
ITEM_50
 10
158.11
 20
9.599999999999999
 30
0.0
 11
159.31
 21
9.599999999999999
 31
0.0
  0
LINE
  8
ITEM_50
 10
156.735023
 20
11.59999999999999
 30
0.0
 11
154.404977
 21
11.59999999999999
 31
0.0
  0
LINE
  8
ITEM_50
 10
163.1899999999999
 20
9.599999999999999
 30
0.0
 11
161.99
 21
9.599999999999999
 31
0.0
  0
LINE
  8
ITEM_50
 10
161.99
 20
9.599999999999999
 30
0.0
 11
161.8150229999999
 21
11.59999999999999
 31
0.0
  0
LINE
  8
ITEM_50
 10
164.3899999999999
 20
9.599999999999999
 30
0.0
 11
164.5649769999999
 21
11.59999999999999
 31
0.0
  0
LINE
  8
ITEM_50
 10
163.1899999999999
 20
9.599999999999999
 30
0.0
 11
164.3899999999999
 21
9.599999999999999
 31
0.0
  0
LINE
  8
ITEM_50
 10
161.8150229999999
 20
11.59999999999999
 30
0.0
 11
159.4849769999999
 21
11.59999999999999
 31
0.0
  0
LINE
  8
ITEM_50
 10
166.895023
 20
11.59999999999999
 30
0.0
 11
164.5649769999999
 21
11.59999999999999
 31
0.0
  0
LINE
  8
ITEM_50
 10
168.27
 20
9.599999999999999
 30
0.0
 11
169.4699999999999
 21
9.599999999999999
 31
0.0
  0
LINE
  8
ITEM_50
 10
169.4699999999999
 20
9.599999999999999
 30
0.0
 11
169.644977
 21
11.59999999999999
 31
0.0
  0
LINE
  8
ITEM_50
 10
167.0699999999999
 20
9.599999999999999
 30
0.0
 11
166.895023
 21
11.59999999999999
 31
0.0
  0
LINE
  8
ITEM_50
 10
168.27
 20
9.599999999999999
 30
0.0
 11
167.0699999999999
 21
9.599999999999999
 31
0.0
  0
LINE
  8
ITEM_50
 10
86.98999999999999
 20
9.599999999999999
 30
0.0
 11
85.79
 21
9.599999999999999
 31
0.0
  0
LINE
  8
ITEM_50
 10
85.79
 20
9.599999999999999
 30
0.0
 11
85.61502299999999
 21
11.59999999999999
 31
0.0
  0
LINE
  8
ITEM_50
 10
88.18999999999999
 20
9.599999999999999
 30
0.0
 11
88.36497699999999
 21
11.59999999999999
 31
0.0
  0
LINE
  8
ITEM_50
 10
86.98999999999999
 20
9.599999999999999
 30
0.0
 11
88.18999999999999
 21
9.599999999999999
 31
0.0
  0
LINE
  8
ITEM_50
 10
85.61502299999999
 20
11.59999999999999
 30
0.0
 11
83.28497699999999
 21
11.59999999999999
 31
0.0
  0
LINE
  8
ITEM_50
 10
80.53502299999999
 20
11.59999999999999
 30
0.0
 11
78.20497699999999
 21
11.59999999999999
 31
0.0
  0
LINE
  8
ITEM_50
 10
81.90999999999999
 20
9.599999999999999
 30
0.0
 11
83.10999999999999
 21
9.599999999999999
 31
0.0
  0
LINE
  8
ITEM_50
 10
83.10999999999999
 20
9.599999999999999
 30
0.0
 11
83.28497699999999
 21
11.59999999999999
 31
0.0
  0
LINE
  8
ITEM_50
 10
80.70999999999999
 20
9.599999999999999
 30
0.0
 11
80.53502299999999
 21
11.59999999999999
 31
0.0
  0
LINE
  8
ITEM_50
 10
81.90999999999999
 20
9.599999999999999
 30
0.0
 11
80.70999999999999
 21
9.599999999999999
 31
0.0
  0
LINE
  8
ITEM_50
 10
75.45502299999999
 20
11.59999999999999
 30
0.0
 11
73.124977
 21
11.59999999999999
 31
0.0
  0
LINE
  8
ITEM_50
 10
76.82999999999999
 20
9.599999999999999
 30
0.0
 11
78.03
 21
9.599999999999999
 31
0.0
  0
LINE
  8
ITEM_50
 10
78.03
 20
9.599999999999999
 30
0.0
 11
78.20497699999999
 21
11.59999999999999
 31
0.0
  0
LINE
  8
ITEM_50
 10
75.62999999999999
 20
9.599999999999999
 30
0.0
 11
75.45502299999999
 21
11.59999999999999
 31
0.0
  0
LINE
  8
ITEM_50
 10
76.82999999999999
 20
9.599999999999999
 30
0.0
 11
75.62999999999999
 21
9.599999999999999
 31
0.0
  0
LINE
  8
ITEM_50
 10
92.06999999999999
 20
9.599999999999999
 30
0.0
 11
90.87
 21
9.599999999999999
 31
0.0
  0
LINE
  8
ITEM_50
 10
90.87
 20
9.599999999999999
 30
0.0
 11
90.695023
 21
11.59999999999999
 31
0.0
  0
LINE
  8
ITEM_50
 10
93.26999999999999
 20
9.599999999999999
 30
0.0
 11
93.44497699999999
 21
11.59999999999999
 31
0.0
  0
LINE
  8
ITEM_50
 10
92.06999999999999
 20
9.599999999999999
 30
0.0
 11
93.26999999999999
 21
9.599999999999999
 31
0.0
  0
LINE
  8
ITEM_50
 10
90.695023
 20
11.59999999999999
 30
0.0
 11
88.36497699999999
 21
11.59999999999999
 31
0.0
  0
LINE
  8
ITEM_50
 10
97.15
 20
9.599999999999999
 30
0.0
 11
95.95
 21
9.599999999999999
 31
0.0
  0
LINE
  8
ITEM_50
 10
95.95
 20
9.599999999999999
 30
0.0
 11
95.775023
 21
11.59999999999999
 31
0.0
  0
LINE
  8
ITEM_50
 10
98.34999999999999
 20
9.599999999999999
 30
0.0
 11
98.524977
 21
11.59999999999999
 31
0.0
  0
LINE
  8
ITEM_50
 10
97.15
 20
9.599999999999999
 30
0.0
 11
98.34999999999999
 21
9.599999999999999
 31
0.0
  0
LINE
  8
ITEM_50
 10
95.775023
 20
11.59999999999999
 30
0.0
 11
93.44497699999999
 21
11.59999999999999
 31
0.0
  0
LINE
  8
ITEM_50
 10
102.23
 20
9.599999999999999
 30
0.0
 11
101.03
 21
9.599999999999999
 31
0.0
  0
LINE
  8
ITEM_50
 10
101.03
 20
9.599999999999999
 30
0.0
 11
100.855023
 21
11.59999999999999
 31
0.0
  0
LINE
  8
ITEM_50
 10
103.43
 20
9.599999999999999
 30
0.0
 11
103.604977
 21
11.59999999999999
 31
0.0
  0
LINE
  8
ITEM_50
 10
102.23
 20
9.599999999999999
 30
0.0
 11
103.43
 21
9.599999999999999
 31
0.0
  0
LINE
  8
ITEM_50
 10
100.855023
 20
11.59999999999999
 30
0.0
 11
98.524977
 21
11.59999999999999
 31
0.0
  0
LINE
  8
ITEM_50
 10
107.31
 20
9.599999999999999
 30
0.0
 11
106.1099999999999
 21
9.599999999999999
 31
0.0
  0
LINE
  8
ITEM_50
 10
106.1099999999999
 20
9.599999999999999
 30
0.0
 11
105.935023
 21
11.59999999999999
 31
0.0
  0
LINE
  8
ITEM_50
 10
108.51
 20
9.599999999999999
 30
0.0
 11
108.684977
 21
11.59999999999999
 31
0.0
  0
LINE
  8
ITEM_50
 10
107.31
 20
9.599999999999999
 30
0.0
 11
108.51
 21
9.599999999999999
 31
0.0
  0
LINE
  8
ITEM_50
 10
105.935023
 20
11.59999999999999
 30
0.0
 11
103.604977
 21
11.59999999999999
 31
0.0
  0
LINE
  8
ITEM_50
 10
112.39
 20
9.599999999999999
 30
0.0
 11
111.1899999999999
 21
9.599999999999999
 31
0.0
  0
LINE
  8
ITEM_50
 10
111.1899999999999
 20
9.599999999999999
 30
0.0
 11
111.0150229999999
 21
11.59999999999999
 31
0.0
  0
LINE
  8
ITEM_50
 10
113.59
 20
9.599999999999999
 30
0.0
 11
113.764977
 21
11.59999999999999
 31
0.0
  0
LINE
  8
ITEM_50
 10
112.39
 20
9.599999999999999
 30
0.0
 11
113.59
 21
9.599999999999999
 31
0.0
  0
LINE
  8
ITEM_50
 10
111.0150229999999
 20
11.59999999999999
 30
0.0
 11
108.684977
 21
11.59999999999999
 31
0.0
  0
LINE
  8
ITEM_50
 10
14.69999999999999
 20
52.5
 30
0.0
 11
14.69999999999999
 21
60.0
 31
0.0
  0
ARC
  8
ITEM_50
 10
12.5
 20
47.19339999999999
 30
0.0
 40
1.0
 50
117.8181389999999
 51
180.0
  0
ARC
  8
ITEM_50
 10
9.699999999999999
 20
52.5
 30
0.0
 40
5.0
 50
297.8181389999999
 51
0.0
  0
ARC
  8
ITEM_50
 10
12.5
 20
32.8066
 30
0.0
 40
1.0
 50
180.0
 51
242.1818609999999
  0
LINE
  8
ITEM_50
 10
11.5
 20
32.8066
 30
0.0
 11
11.5
 21
47.19339999999999
 31
0.0
  0
ARC
  8
ITEM_50
 10
18.69999999999999
 20
15.59999999999999
 30
0.0
 40
4.0
 50
180.0
 51
270.0
  0
LINE
  8
ITEM_50
 10
19.575023
 20
11.59999999999999
 30
0.0
 11
18.69999999999999
 21
11.59999999999999
 31
0.0
  0
LINE
  8
ITEM_50
 10
14.69999999999999
 20
27.5
 30
0.0
 11
14.69999999999999
 21
15.59999999999999
 31
0.0
  0
ARC
  8
ITEM_50
 10
9.699999999999999
 20
27.5
 30
0.0
 40
5.0
 50
0.0
 51
62.18186099999999
  0
LINE
  8
ITEM_50
 10
200.0
 20
10.0
 30
0.0
 11
200.0
 21
7.5
 31
0.0
  0
LINE
  8
ITEM_50
 10
198.0
 20
59.0
 30
0.0
 11
199.0
 21
59.0
 31
0.0
  0
LINE
  8
ITEM_50
 10
199.0
 20
56.0
 30
0.0
 11
198.0
 21
56.0
 31
0.0
  0
LINE
  8
ITEM_50
 10
198.0
 20
54.0
 30
0.0
 11
199.0
 21
54.0
 31
0.0
  0
LINE
  8
ITEM_50
 10
199.0
 20
51.0
 30
0.0
 11
198.0
 21
51.0
 31
0.0
  0
LINE
  8
ITEM_50
 10
198.0
 20
49.0
 30
0.0
 11
199.0
 21
49.0
 31
0.0
  0
LINE
  8
ITEM_50
 10
199.0
 20
46.0
 30
0.0
 11
198.0
 21
46.0
 31
0.0
  0
LINE
  8
ITEM_50
 10
198.0
 20
44.0
 30
0.0
 11
199.0
 21
44.0
 31
0.0
  0
LINE
  8
ITEM_50
 10
199.0
 20
41.0
 30
0.0
 11
198.0
 21
41.0
 31
0.0
  0
LINE
  8
ITEM_50
 10
198.0
 20
39.0
 30
0.0
 11
199.0
 21
39.0
 31
0.0
  0
LINE
  8
ITEM_50
 10
199.0
 20
36.0
 30
0.0
 11
198.0
 21
36.0
 31
0.0
  0
LINE
  8
ITEM_50
 10
198.0
 20
34.0
 30
0.0
 11
199.0
 21
34.0
 31
0.0
  0
LINE
  8
ITEM_50
 10
199.0
 20
31.0
 30
0.0
 11
198.0
 21
31.0
 31
0.0
  0
LINE
  8
ITEM_50
 10
198.0
 20
29.0
 30
0.0
 11
199.0
 21
29.0
 31
0.0
  0
LINE
  8
ITEM_50
 10
199.0
 20
26.0
 30
0.0
 11
198.0
 21
26.0
 31
0.0
  0
LINE
  8
ITEM_50
 10
198.0
 20
24.0
 30
0.0
 11
199.0
 21
24.0
 31
0.0
  0
LINE
  8
ITEM_50
 10
198.0
 20
21.0
 30
0.0
 11
199.0
 21
21.0
 31
0.0
  0
LINE
  8
ITEM_50
 10
198.0
 20
19.0
 30
0.0
 11
199.0
 21
19.0
 31
0.0
  0
LINE
  8
ITEM_50
 10
199.0
 20
16.0
 30
0.0
 11
198.0
 21
16.0
 31
0.0
  0
LINE
  8
ITEM_50
 10
198.0
 20
14.0
 30
0.0
 11
199.0
 21
14.0
 31
0.0
  0
LINE
  8
ITEM_50
 10
198.0
 20
11.0
 30
0.0
 11
199.0
 21
11.0
 31
0.0
  0
ARC
  8
ITEM_50
 10
196.541121
 20
1.0
 30
0.0
 40
1.0
 50
270.0
 51
270.0
  0
LINE
  8
ITEM_50
 10
195.5
 20
1.0
 30
0.0
 11
195.5
 21
5.0
 31
0.0
  0
LINE
  8
ITEM_50
 10
193.5
 20
5.0
 30
0.0
 11
193.5
 21
1.125
 31
0.0
  0
LINE
  8
ITEM_50
 10
200.0
 20
3.95804
 30
0.0
 11
200.0
 21
4.0
 31
0.0
  0
ARC
  8
ITEM_50
 10
196.0
 20
3.95804
 30
0.0
 40
4.0
 50
279.5940679999999
 51
0.0
  0
ARC
  8
ITEM_50
 10
196.5
 20
1.0
 30
0.0
 40
1.0
 50
180.0
 51
279.5940679999999
  0
ARC
  8
ITEM_50
 10
194.5
 20
5.0
 30
0.0
 40
1.0
 50
0.0
 51
180.0
  0
ARC
  8
ITEM_50
 10
177.5
 20
1.0
 30
0.0
 40
1.0
 50
180.0
 51
0.0
  0
LINE
  8
ITEM_50
 10
178.5
 20
5.5
 30
0.0
 11
178.5
 21
1.0
 31
0.0
  0
ARC
  8
ITEM_50
 10
180.0
 20
5.5
 30
0.0
 40
1.5
 50
0.0
 51
180.0
  0
LINE
  8
ITEM_50
 10
181.5
 20
1.0
 30
0.0
 11
181.5
 21
5.5
 31
0.0
  0
ARC
  8
ITEM_50
 10
182.5
 20
1.0
 30
0.0
 40
1.0
 50
180.0
 51
0.0
  0
LINE
  8
ITEM_50
 10
183.5
 20
5.5
 30
0.0
 11
183.5
 21
1.0
 31
0.0
  0
ARC
  8
ITEM_50
 10
185.0
 20
5.5
 30
0.0
 40
1.5
 50
0.0
 51
180.0
  0
LINE
  8
ITEM_50
 10
186.5
 20
1.125
 30
0.0
 11
186.5
 21
5.5
 31
0.0
  0
ARC
  8
ITEM_50
 10
157.5
 20
1.0
 30
0.0
 40
1.0
 50
180.0
 51
0.0
  0
ARC
  8
ITEM_50
 10
160.0
 20
5.5
 30
0.0
 40
1.5
 50
0.0
 51
180.0
  0
LINE
  8
ITEM_50
 10
158.5
 20
5.5
 30
0.0
 11
158.5
 21
1.0
 31
0.0
  0
LINE
  8
ITEM_50
 10
161.5
 20
1.0
 30
0.0
 11
161.5
 21
5.5
 31
0.0
  0
ARC
  8
ITEM_50
 10
162.5
 20
1.0
 30
0.0
 40
1.0
 50
180.0
 51
0.0
  0
LINE
  8
ITEM_50
 10
163.5
 20
5.5
 30
0.0
 11
163.5
 21
1.0
 31
0.0
  0
LINE
  8
ITEM_50
 10
166.5
 20
1.0
 30
0.0
 11
166.5
 21
5.5
 31
0.0
  0
ARC
  8
ITEM_50
 10
165.0
 20
5.5
 30
0.0
 40
1.5
 50
0.0
 51
180.0
  0
ARC
  8
ITEM_50
 10
175.0
 20
5.5
 30
0.0
 40
1.5
 50
0.0
 51
180.0
  0
LINE
  8
ITEM_50
 10
176.5
 20
1.0
 30
0.0
 11
176.5
 21
5.5
 31
0.0
  0
LINE
  8
ITEM_50
 10
173.5
 20
5.5
 30
0.0
 11
173.5
 21
1.0
 31
0.0
  0
ARC
  8
ITEM_50
 10
172.5
 20
1.0
 30
0.0
 40
1.0
 50
180.0
 51
0.0
  0
ARC
  8
ITEM_50
 10
167.5
 20
1.0
 30
0.0
 40
1.0
 50
180.0
 51
0.0
  0
LINE
  8
ITEM_50
 10
171.5
 20
1.0
 30
0.0
 11
171.5
 21
5.5
 31
0.0
  0
LINE
  8
ITEM_50
 10
168.5
 20
5.5
 30
0.0
 11
168.5
 21
1.0
 31
0.0
  0
ARC
  8
ITEM_50
 10
170.0
 20
5.5
 30
0.0
 40
1.5
 50
0.0
 51
180.0
  0
ARC
  8
ITEM_50
 10
150.0
 20
5.5
 30
0.0
 40
1.5
 50
0.0
 51
180.0
  0
LINE
  8
ITEM_50
 10
148.5
 20
5.5
 30
0.0
 11
148.5
 21
1.0
 31
0.0
  0
LINE
  8
ITEM_50
 10
151.5
 20
1.0
 30
0.0
 11
151.5
 21
5.5
 31
0.0
  0
ARC
  8
ITEM_50
 10
147.5
 20
1.0
 30
0.0
 40
1.0
 50
180.0
 51
0.0
  0
ARC
  8
ITEM_50
 10
152.5
 20
1.0
 30
0.0
 40
1.0
 50
180.0
 51
0.0
  0
LINE
  8
ITEM_50
 10
153.5
 20
5.5
 30
0.0
 11
153.5
 21
1.0
 31
0.0
  0
LINE
  8
ITEM_50
 10
156.5
 20
1.0
 30
0.0
 11
156.5
 21
5.5
 31
0.0
  0
ARC
  8
ITEM_50
 10
155.0
 20
5.5
 30
0.0
 40
1.5
 50
0.0
 51
180.0
  0
ARC
  8
ITEM_50
 10
145.0
 20
5.5
 30
0.0
 40
1.5
 50
0.0
 51
180.0
  0
LINE
  8
ITEM_50
 10
146.5
 20
1.0
 30
0.0
 11
146.5
 21
5.5
 31
0.0
  0
LINE
  8
ITEM_50
 10
143.5
 20
5.5
 30
0.0
 11
143.5
 21
1.0
 31
0.0
  0
ARC
  8
ITEM_50
 10
142.5
 20
1.0
 30
0.0
 40
1.0
 50
180.0
 51
0.0
  0
ARC
  8
ITEM_50
 10
137.5
 20
1.0
 30
0.0
 40
1.0
 50
180.0
 51
0.0
  0
LINE
  8
ITEM_50
 10
141.5
 20
1.0
 30
0.0
 11
141.5
 21
5.5
 31
0.0
  0
LINE
  8
ITEM_50
 10
138.5
 20
5.5
 30
0.0
 11
138.5
 21
1.0
 31
0.0
  0
ARC
  8
ITEM_50
 10
140.0
 20
5.5
 30
0.0
 40
1.5
 50
0.0
 51
180.0
  0
ARC
  8
ITEM_50
 10
192.375
 20
1.125
 30
0.0
 40
1.125
 50
180.0
 51
0.0
  0
ARC
  8
ITEM_50
 10
187.625
 20
1.125
 30
0.0
 40
1.125
 50
180.0
 51
0.0
  0
ARC
  8
ITEM_50
 10
190.0
 20
4.5
 30
0.0
 40
1.6
 50
321.3751669999999
 51
38.624833
  0
LINE
  8
ITEM_50
 10
188.75
 20
6.799999999999999
 30
0.0
 11
188.75
 21
5.498749
 31
0.0
  0
LINE
  8
ITEM_50
 10
188.75
 20
5.5
 30
0.0
 11
188.75
 21
5.498749
 31
0.0
  0
LINE
  8
ITEM_50
 10
191.05
 20
7.0
 30
0.0
 11
188.9499999999999
 21
7.0
 31
0.0
  0
LINE
  8
ITEM_50
 10
191.25
 20
5.498749
 30
0.0
 11
191.25
 21
5.5
 31
0.0
  0
LINE
  8
ITEM_50
 10
191.25
 20
1.125
 30
0.0
 11
191.25
 21
3.501250999999999
 31
0.0
  0
ARC
  8
ITEM_50
 10
190.0
 20
4.5
 30
0.0
 40
1.6
 50
141.375167
 51
218.6248329999999
  0
ARC
  8
ITEM_50
 10
188.9499999999999
 20
6.799999999999999
 30
0.0
 40
0.2
 50
90.0
 51
180.0
  0
ARC
  8
ITEM_50
 10
191.05
 20
6.799999999999999
 30
0.0
 40
0.2
 50
0.0
 51
90.0
  0
LINE
  8
ITEM_50
 10
188.75
 20
3.501250999999999
 30
0.0
 11
188.75
 21
1.125
 31
0.0
  0
LINE
  8
ITEM_50
 10
191.25
 20
5.498749
 30
0.0
 11
191.25
 21
6.799999999999999
 31
0.0
  0
ARC
  8
ITEM_50
 10
135.0
 20
5.5
 30
0.0
 40
1.5
 50
0.0
 51
180.0
  0
LINE
  8
ITEM_50
 10
136.5
 20
5.5
 30
0.0
 11
136.5
 21
1.0
 31
0.0
  0
LINE
  8
ITEM_50
 10
133.5
 20
1.125
 30
0.0
 11
133.5
 21
5.5
 31
0.0
  0
LINE
  8
ITEM_50
 10
73.5
 20
1.125
 30
0.0
 11
73.5
 21
5.5
 31
0.0
  0
LINE
  8
ITEM_50
 10
76.5
 20
5.5
 30
0.0
 11
76.5
 21
1.0
 31
0.0
  0
ARC
  8
ITEM_50
 10
75.0
 20
5.5
 30
0.0
 40
1.5
 50
0.0
 51
180.0
  0
LINE
  8
ITEM_50
 10
131.25
 20
5.498749
 30
0.0
 11
131.25
 21
6.799999999999999
 31
0.0
  0
LINE
  8
ITEM_50
 10
128.75
 20
3.501250999999999
 30
0.0
 11
128.75
 21
1.125
 31
0.0
  0
ARC
  8
ITEM_50
 10
131.05
 20
6.799999999999999
 30
0.0
 40
0.2
 50
0.0
 51
90.0
  0
ARC
  8
ITEM_50
 10
128.9499999999999
 20
6.799999999999999
 30
0.0
 40
0.2
 50
90.0
 51
180.0
  0
ARC
  8
ITEM_50
 10
130.0
 20
4.5
 30
0.0
 40
1.6
 50
141.375167
 51
218.6248329999999
  0
LINE
  8
ITEM_50
 10
131.25
 20
1.125
 30
0.0
 11
131.25
 21
3.501250999999999
 31
0.0
  0
LINE
  8
ITEM_50
 10
131.25
 20
5.498749
 30
0.0
 11
131.25
 21
5.5
 31
0.0
  0
LINE
  8
ITEM_50
 10
131.05
 20
7.0
 30
0.0
 11
128.9499999999999
 21
7.0
 31
0.0
  0
LINE
  8
ITEM_50
 10
128.75
 20
5.5
 30
0.0
 11
128.75
 21
5.498749
 31
0.0
  0
LINE
  8
ITEM_50
 10
128.75
 20
6.799999999999999
 30
0.0
 11
128.75
 21
5.498749
 31
0.0
  0
ARC
  8
ITEM_50
 10
130.0
 20
4.5
 30
0.0
 40
1.6
 50
321.3751669999999
 51
38.624833
  0
ARC
  8
ITEM_50
 10
127.625
 20
1.125
 30
0.0
 40
1.125
 50
180.0
 51
0.0
  0
ARC
  8
ITEM_50
 10
132.375
 20
1.125
 30
0.0
 40
1.125
 50
180.0
 51
0.0
  0
ARC
  8
ITEM_50
 10
80.0
 20
5.5
 30
0.0
 40
1.5
 50
0.0
 51
180.0
  0
LINE
  8
ITEM_50
 10
78.5
 20
5.5
 30
0.0
 11
78.5
 21
1.0
 31
0.0
  0
LINE
  8
ITEM_50
 10
81.5
 20
1.0
 30
0.0
 11
81.5
 21
5.5
 31
0.0
  0
ARC
  8
ITEM_50
 10
77.5
 20
1.0
 30
0.0
 40
1.0
 50
180.0
 51
0.0
  0
ARC
  8
ITEM_50
 10
82.5
 20
1.0
 30
0.0
 40
1.0
 50
180.0
 51
0.0
  0
LINE
  8
ITEM_50
 10
83.5
 20
5.5
 30
0.0
 11
83.5
 21
1.0
 31
0.0
  0
LINE
  8
ITEM_50
 10
86.5
 20
1.0
 30
0.0
 11
86.5
 21
5.5
 31
0.0
  0
ARC
  8
ITEM_50
 10
85.0
 20
5.5
 30
0.0
 40
1.5
 50
0.0
 51
180.0
  0
ARC
  8
ITEM_50
 10
95.0
 20
5.5
 30
0.0
 40
1.5
 50
0.0
 51
180.0
  0
LINE
  8
ITEM_50
 10
96.5
 20
1.0
 30
0.0
 11
96.5
 21
5.5
 31
0.0
  0
LINE
  8
ITEM_50
 10
93.5
 20
5.5
 30
0.0
 11
93.5
 21
1.0
 31
0.0
  0
ARC
  8
ITEM_50
 10
92.5
 20
1.0
 30
0.0
 40
1.0
 50
180.0
 51
0.0
  0
ARC
  8
ITEM_50
 10
87.5
 20
1.0
 30
0.0
 40
1.0
 50
180.0
 51
0.0
  0
LINE
  8
ITEM_50
 10
91.5
 20
1.0
 30
0.0
 11
91.5
 21
5.5
 31
0.0
  0
LINE
  8
ITEM_50
 10
88.5
 20
5.5
 30
0.0
 11
88.5
 21
1.0
 31
0.0
  0
ARC
  8
ITEM_50
 10
90.0
 20
5.5
 30
0.0
 40
1.5
 50
0.0
 51
180.0
  0
ARC
  8
ITEM_50
 10
110.0
 20
5.5
 30
0.0
 40
1.5
 50
0.0
 51
180.0
  0
LINE
  8
ITEM_50
 10
108.5
 20
5.5
 30
0.0
 11
108.5
 21
1.0
 31
0.0
  0
LINE
  8
ITEM_50
 10
111.5
 20
1.0
 30
0.0
 11
111.5
 21
5.5
 31
0.0
  0
ARC
  8
ITEM_50
 10
107.5
 20
1.0
 30
0.0
 40
1.0
 50
180.0
 51
0.0
  0
ARC
  8
ITEM_50
 10
112.5
 20
1.0
 30
0.0
 40
1.0
 50
180.0
 51
0.0
  0
LINE
  8
ITEM_50
 10
113.5
 20
5.5
 30
0.0
 11
113.5
 21
1.0
 31
0.0
  0
LINE
  8
ITEM_50
 10
116.5
 20
1.0
 30
0.0
 11
116.5
 21
5.5
 31
0.0
  0
ARC
  8
ITEM_50
 10
115.0
 20
5.5
 30
0.0
 40
1.5
 50
0.0
 51
180.0
  0
ARC
  8
ITEM_50
 10
105.0
 20
5.5
 30
0.0
 40
1.5
 50
0.0
 51
180.0
  0
LINE
  8
ITEM_50
 10
106.5
 20
1.0
 30
0.0
 11
106.5
 21
5.5
 31
0.0
  0
LINE
  8
ITEM_50
 10
103.5
 20
5.5
 30
0.0
 11
103.5
 21
1.0
 31
0.0
  0
ARC
  8
ITEM_50
 10
102.5
 20
1.0
 30
0.0
 40
1.0
 50
180.0
 51
0.0
  0
LINE
  8
ITEM_50
 10
101.5
 20
1.0
 30
0.0
 11
101.5
 21
5.5
 31
0.0
  0
LINE
  8
ITEM_50
 10
98.5
 20
5.5
 30
0.0
 11
98.5
 21
1.0
 31
0.0
  0
ARC
  8
ITEM_50
 10
100.0
 20
5.5
 30
0.0
 40
1.5
 50
0.0
 51
180.0
  0
ARC
  8
ITEM_50
 10
97.5
 20
1.0
 30
0.0
 40
1.0
 50
180.0
 51
0.0
  0
LINE
  8
ITEM_50
 10
126.5
 20
1.125
 30
0.0
 11
126.5
 21
5.5
 31
0.0
  0
ARC
  8
ITEM_50
 10
125.0
 20
5.5
 30
0.0
 40
1.5
 50
0.0
 51
180.0
  0
LINE
  8
ITEM_50
 10
123.5
 20
5.5
 30
0.0
 11
123.5
 21
1.0
 31
0.0
  0
ARC
  8
ITEM_50
 10
122.5
 20
1.0
 30
0.0
 40
1.0
 50
180.0
 51
0.0
  0
LINE
  8
ITEM_50
 10
121.5
 20
1.0
 30
0.0
 11
121.5
 21
5.5
 31
0.0
  0
ARC
  8
ITEM_50
 10
120.0
 20
5.5
 30
0.0
 40
1.5
 50
0.0
 51
180.0
  0
LINE
  8
ITEM_50
 10
118.5
 20
5.5
 30
0.0
 11
118.5
 21
1.0
 31
0.0
  0
ARC
  8
ITEM_50
 10
117.5
 20
1.0
 30
0.0
 40
1.0
 50
180.0
 51
0.0
  0
ARC
  8
ITEM_50
 10
57.5
 20
1.0
 30
0.0
 40
1.0
 50
180.0
 51
0.0
  0
LINE
  8
ITEM_50
 10
58.5
 20
5.5
 30
0.0
 11
58.5
 21
1.0
 31
0.0
  0
ARC
  8
ITEM_50
 10
60.0
 20
5.5
 30
0.0
 40
1.5
 50
0.0
 51
180.0
  0
LINE
  8
ITEM_50
 10
61.5
 20
1.0
 30
0.0
 11
61.5
 21
5.5
 31
0.0
  0
ARC
  8
ITEM_50
 10
62.5
 20
1.0
 30
0.0
 40
1.0
 50
180.0
 51
0.0
  0
LINE
  8
ITEM_50
 10
63.5
 20
5.5
 30
0.0
 11
63.5
 21
1.0
 31
0.0
  0
ARC
  8
ITEM_50
 10
65.0
 20
5.5
 30
0.0
 40
1.5
 50
0.0
 51
180.0
  0
LINE
  8
ITEM_50
 10
66.5
 20
1.125
 30
0.0
 11
66.5
 21
5.5
 31
0.0
  0
ARC
  8
ITEM_50
 10
37.5
 20
1.0
 30
0.0
 40
1.0
 50
180.0
 51
0.0
  0
ARC
  8
ITEM_50
 10
40.0
 20
5.5
 30
0.0
 40
1.5
 50
0.0
 51
180.0
  0
LINE
  8
ITEM_50
 10
38.5
 20
5.5
 30
0.0
 11
38.5
 21
1.0
 31
0.0
  0
LINE
  8
ITEM_50
 10
41.5
 20
1.0
 30
0.0
 11
41.5
 21
5.5
 31
0.0
  0
ARC
  8
ITEM_50
 10
42.5
 20
1.0
 30
0.0
 40
1.0
 50
180.0
 51
0.0
  0
LINE
  8
ITEM_50
 10
43.5
 20
5.5
 30
0.0
 11
43.5
 21
1.0
 31
0.0
  0
LINE
  8
ITEM_50
 10
46.5
 20
1.0
 30
0.0
 11
46.5
 21
5.5
 31
0.0
  0
ARC
  8
ITEM_50
 10
45.0
 20
5.5
 30
0.0
 40
1.5
 50
0.0
 51
180.0
  0
ARC
  8
ITEM_50
 10
55.0
 20
5.5
 30
0.0
 40
1.5
 50
0.0
 51
180.0
  0
LINE
  8
ITEM_50
 10
56.5
 20
1.0
 30
0.0
 11
56.5
 21
5.5
 31
0.0
  0
LINE
  8
ITEM_50
 10
53.5
 20
5.5
 30
0.0
 11
53.5
 21
1.0
 31
0.0
  0
ARC
  8
ITEM_50
 10
52.5
 20
1.0
 30
0.0
 40
1.0
 50
180.0
 51
0.0
  0
ARC
  8
ITEM_50
 10
47.5
 20
1.0
 30
0.0
 40
1.0
 50
180.0
 51
0.0
  0
LINE
  8
ITEM_50
 10
51.5
 20
1.0
 30
0.0
 11
51.5
 21
5.5
 31
0.0
  0
LINE
  8
ITEM_50
 10
48.5
 20
5.5
 30
0.0
 11
48.5
 21
1.0
 31
0.0
  0
ARC
  8
ITEM_50
 10
50.0
 20
5.5
 30
0.0
 40
1.5
 50
0.0
 51
180.0
  0
ARC
  8
ITEM_50
 10
30.0
 20
5.5
 30
0.0
 40
1.5
 50
0.0
 51
180.0
  0
LINE
  8
ITEM_50
 10
28.5
 20
5.5
 30
0.0
 11
28.5
 21
1.0
 31
0.0
  0
LINE
  8
ITEM_50
 10
31.5
 20
1.0
 30
0.0
 11
31.5
 21
5.5
 31
0.0
  0
ARC
  8
ITEM_50
 10
27.5
 20
1.0
 30
0.0
 40
1.0
 50
180.0
 51
0.0
  0
ARC
  8
ITEM_50
 10
32.5
 20
1.0
 30
0.0
 40
1.0
 50
180.0
 51
0.0
  0
LINE
  8
ITEM_50
 10
33.5
 20
5.5
 30
0.0
 11
33.5
 21
1.0
 31
0.0
  0
LINE
  8
ITEM_50
 10
36.5
 20
1.0
 30
0.0
 11
36.5
 21
5.5
 31
0.0
  0
ARC
  8
ITEM_50
 10
35.0
 20
5.5
 30
0.0
 40
1.5
 50
0.0
 51
180.0
  0
ARC
  8
ITEM_50
 10
25.0
 20
5.5
 30
0.0
 40
1.5
 50
0.0
 51
180.0
  0
LINE
  8
ITEM_50
 10
26.5
 20
1.0
 30
0.0
 11
26.5
 21
5.5
 31
0.0
  0
LINE
  8
ITEM_50
 10
23.5
 20
5.5
 30
0.0
 11
23.5
 21
1.0
 31
0.0
  0
ARC
  8
ITEM_50
 10
22.5
 20
1.0
 30
0.0
 40
1.0
 50
180.0
 51
0.0
  0
ARC
  8
ITEM_50
 10
17.5
 20
1.0
 30
0.0
 40
1.0
 50
180.0
 51
0.0
  0
LINE
  8
ITEM_50
 10
21.5
 20
1.0
 30
0.0
 11
21.5
 21
5.5
 31
0.0
  0
LINE
  8
ITEM_50
 10
18.5
 20
5.5
 30
0.0
 11
18.5
 21
1.0
 31
0.0
  0
ARC
  8
ITEM_50
 10
20.0
 20
5.5
 30
0.0
 40
1.5
 50
0.0
 51
180.0
  0
ARC
  8
ITEM_50
 10
72.375
 20
1.125
 30
0.0
 40
1.125
 50
180.0
 51
0.0
  0
ARC
  8
ITEM_50
 10
67.625
 20
1.125
 30
0.0
 40
1.125
 50
180.0
 51
0.0
  0
ARC
  8
ITEM_50
 10
70.0
 20
4.5
 30
0.0
 40
1.6
 50
321.3751669999999
 51
38.624833
  0
LINE
  8
ITEM_50
 10
68.75
 20
6.799999999999999
 30
0.0
 11
68.75
 21
5.498749
 31
0.0
  0
LINE
  8
ITEM_50
 10
68.75
 20
5.5
 30
0.0
 11
68.75
 21
5.498749
 31
0.0
  0
LINE
  8
ITEM_50
 10
71.04999999999999
 20
7.0
 30
0.0
 11
68.95
 21
7.0
 31
0.0
  0
LINE
  8
ITEM_50
 10
71.25
 20
5.498749
 30
0.0
 11
71.25
 21
5.5
 31
0.0
  0
LINE
  8
ITEM_50
 10
71.25
 20
1.125
 30
0.0
 11
71.25
 21
3.501250999999999
 31
0.0
  0
ARC
  8
ITEM_50
 10
70.0
 20
4.5
 30
0.0
 40
1.6
 50
141.375167
 51
218.6248329999999
  0
ARC
  8
ITEM_50
 10
68.95
 20
6.799999999999999
 30
0.0
 40
0.2
 50
90.0
 51
180.0
  0
ARC
  8
ITEM_50
 10
71.04999999999999
 20
6.799999999999999
 30
0.0
 40
0.2
 50
0.0
 51
90.0
  0
LINE
  8
ITEM_50
 10
68.75
 20
3.501250999999999
 30
0.0
 11
68.75
 21
1.125
 31
0.0
  0
LINE
  8
ITEM_50
 10
71.25
 20
5.498749
 30
0.0
 11
71.25
 21
6.799999999999999
 31
0.0
  0
ARC
  8
ITEM_50
 10
15.0
 20
5.5
 30
0.0
 40
1.5
 50
0.0
 51
180.0
  0
LINE
  8
ITEM_50
 10
16.5
 20
5.5
 30
0.0
 11
16.5
 21
1.0
 31
0.0
  0
LINE
  8
ITEM_50
 10
13.5
 20
1.125
 30
0.0
 11
13.5
 21
5.5
 31
0.0
  0
LINE
  8
ITEM_50
 10
11.25
 20
5.498749
 30
0.0
 11
11.25
 21
6.799999999999999
 31
0.0
  0
LINE
  8
ITEM_50
 10
8.75
 20
3.501250999999999
 30
0.0
 11
8.75
 21
1.125
 31
0.0
  0
ARC
  8
ITEM_50
 10
11.05
 20
6.799999999999999
 30
0.0
 40
0.2
 50
0.0
 51
90.0
  0
ARC
  8
ITEM_50
 10
8.949999999999999
 20
6.799999999999999
 30
0.0
 40
0.2
 50
90.0
 51
180.0
  0
ARC
  8
ITEM_50
 10
12.375
 20
1.125
 30
0.0
 40
1.125
 50
180.0
 51
0.0
  0
ARC
  8
ITEM_50
 10
5.5
 20
5.0
 30
0.0
 40
1.0
 50
0.0
 51
180.0
  0
ARC
  8
ITEM_50
 10
7.625
 20
1.125
 30
0.0
 40
1.125
 50
180.0
 51
0.0
  0
ARC
  8
ITEM_50
 10
3.5
 20
1.0
 30
0.0
 40
1.0
 50
260.405932
 51
0.0
  0
ARC
  8
ITEM_50
 10
4.0
 20
3.95804
 30
0.0
 40
4.0
 50
180.0
 51
260.405932
  0
LINE
  8
ITEM_50
 10
0.0
 20
3.95804
 30
0.0
 11
0.0
 21
4.0
 31
0.0
  0
LINE
  8
ITEM_50
 10
6.5
 20
5.0
 30
0.0
 11
6.5
 21
1.125
 31
0.0
  0
LINE
  8
ITEM_50
 10
4.5
 20
1.0
 30
0.0
 11
4.5
 21
5.0
 31
0.0
  0
ARC
  8
ITEM_50
 10
1.25
 20
42.75
 30
0.0
 40
1.25
 50
90.0
 51
270.0
  0
LINE
  8
ITEM_50
 10
1.5
 20
47.0
 30
0.0
 11
7.5
 21
47.0
 31
0.0
  0
LINE
  8
ITEM_50
 10
7.5
 20
44.0
 30
0.0
 11
1.25
 21
44.0
 31
0.0
  0
ARC
  8
ITEM_50
 10
7.5
 20
45.5
 30
0.0
 40
1.5
 50
270.0
 51
90.0
  0
ARC
  8
ITEM_50
 10
1.5
 20
48.5
 30
0.0
 40
1.5
 50
180.0
 51
270.0
  0
ARC
  8
ITEM_50
 10
1.25
 20
37.25
 30
0.0
 40
1.25
 50
90.0
 51
270.0
  0
LINE
  8
ITEM_50
 10
1.25
 20
41.5
 30
0.0
 11
7.5
 21
41.5
 31
0.0
  0
ARC
  8
ITEM_50
 10
7.5
 20
40.0
 30
0.0
 40
1.5
 50
0.0
 51
90.0
  0
ARC
  8
ITEM_50
 10
3.458879
 20
1.0
 30
0.0
 40
1.0
 50
270.0
 51
270.0
  0
LINE
  8
ITEM_50
 10
200.0
 20
4.030508
 30
0.0
 11
200.0
 21
7.5
 31
0.0
  0
ARC
  8
ITEM_50
 10
199.0
 20
10.0
 30
0.0
 40
1.0
 50
0.0
 51
90.0
  0
ARC
  8
ITEM_50
 10
198.0
 20
57.5
 30
0.0
 40
1.5
 50
90.0
 51
270.0
  0
ARC
  8
ITEM_50
 10
199.0
 20
60.0
 30
0.0
 40
1.0
 50
270.0
 51
0.0
  0
ARC
  8
ITEM_50
 10
198.0
 20
52.5
 30
0.0
 40
1.5
 50
90.0
 51
270.0
  0
ARC
  8
ITEM_50
 10
199.0
 20
55.0
 30
0.0
 40
1.0
 50
270.0
 51
90.0
  0
ARC
  8
ITEM_50
 10
198.0
 20
47.5
 30
0.0
 40
1.5
 50
90.0
 51
270.0
  0
ARC
  8
ITEM_50
 10
199.0
 20
50.0
 30
0.0
 40
1.0
 50
270.0
 51
90.0
  0
ARC
  8
ITEM_50
 10
198.0
 20
42.5
 30
0.0
 40
1.5
 50
90.0
 51
270.0
  0
ARC
  8
ITEM_50
 10
199.0
 20
45.0
 30
0.0
 40
1.0
 50
270.0
 51
90.0
  0
ARC
  8
ITEM_50
 10
198.0
 20
37.5
 30
0.0
 40
1.5
 50
90.0
 51
270.0
  0
ARC
  8
ITEM_50
 10
199.0
 20
40.0
 30
0.0
 40
1.0
 50
270.0
 51
90.0
  0
ARC
  8
ITEM_50
 10
198.0
 20
32.5
 30
0.0
 40
1.5
 50
90.0
 51
270.0
  0
ARC
  8
ITEM_50
 10
199.0
 20
35.0
 30
0.0
 40
1.0
 50
270.0
 51
90.0
  0
ARC
  8
ITEM_50
 10
198.0
 20
27.5
 30
0.0
 40
1.5
 50
90.0
 51
270.0
  0
ARC
  8
ITEM_50
 10
199.0
 20
30.0
 30
0.0
 40
1.0
 50
270.0
 51
90.0
  0
ARC
  8
ITEM_50
 10
198.0
 20
22.5
 30
0.0
 40
1.5
 50
90.0
 51
270.0
  0
ARC
  8
ITEM_50
 10
199.0
 20
25.0
 30
0.0
 40
1.0
 50
270.0
 51
90.0
  0
ARC
  8
ITEM_50
 10
198.0
 20
17.5
 30
0.0
 40
1.5
 50
90.0
 51
270.0
  0
ARC
  8
ITEM_50
 10
199.0
 20
20.0
 30
0.0
 40
1.0
 50
270.0
 51
90.0
  0
ARC
  8
ITEM_50
 10
199.0
 20
15.0
 30
0.0
 40
1.0
 50
270.0
 51
90.0
  0
ARC
  8
ITEM_50
 10
198.0
 20
12.5
 30
0.0
 40
1.5
 50
90.0
 51
270.0
  0
LINE
  8
ITEM_50
 10
70.37502299999999
 20
11.59999999999999
 30
0.0
 11
68.044977
 21
11.59999999999999
 31
0.0
  0
LINE
  8
ITEM_50
 10
71.75
 20
9.599999999999999
 30
0.0
 11
72.95
 21
9.599999999999999
 31
0.0
  0
LINE
  8
ITEM_50
 10
72.95
 20
9.599999999999999
 30
0.0
 11
73.124977
 21
11.59999999999999
 31
0.0
  0
LINE
  8
ITEM_50
 10
70.54999999999999
 20
9.599999999999999
 30
0.0
 11
70.37502299999999
 21
11.59999999999999
 31
0.0
  0
LINE
  8
ITEM_50
 10
71.75
 20
9.599999999999999
 30
0.0
 11
70.54999999999999
 21
9.599999999999999
 31
0.0
  0
LINE
  8
ITEM_50
 10
65.295023
 20
11.59999999999999
 30
0.0
 11
62.96497699999999
 21
11.59999999999999
 31
0.0
  0
LINE
  8
ITEM_50
 10
66.67
 20
9.599999999999999
 30
0.0
 11
67.87
 21
9.599999999999999
 31
0.0
  0
LINE
  8
ITEM_50
 10
67.87
 20
9.599999999999999
 30
0.0
 11
68.044977
 21
11.59999999999999
 31
0.0
  0
LINE
  8
ITEM_50
 10
65.46999999999999
 20
9.599999999999999
 30
0.0
 11
65.295023
 21
11.59999999999999
 31
0.0
  0
LINE
  8
ITEM_50
 10
66.67
 20
9.599999999999999
 30
0.0
 11
65.46999999999999
 21
9.599999999999999
 31
0.0
  0
LINE
  8
ITEM_50
 10
60.215023
 20
11.59999999999999
 30
0.0
 11
57.88497699999999
 21
11.59999999999999
 31
0.0
  0
LINE
  8
ITEM_50
 10
61.59
 20
9.599999999999999
 30
0.0
 11
62.78999999999999
 21
9.599999999999999
 31
0.0
  0
LINE
  8
ITEM_50
 10
62.78999999999999
 20
9.599999999999999
 30
0.0
 11
62.96497699999999
 21
11.59999999999999
 31
0.0
  0
LINE
  8
ITEM_50
 10
60.39
 20
9.599999999999999
 30
0.0
 11
60.215023
 21
11.59999999999999
 31
0.0
  0
LINE
  8
ITEM_50
 10
61.59
 20
9.599999999999999
 30
0.0
 11
60.39
 21
9.599999999999999
 31
0.0
  0
LINE
  8
ITEM_50
 10
55.13502299999999
 20
11.59999999999999
 30
0.0
 11
52.804977
 21
11.59999999999999
 31
0.0
  0
LINE
  8
ITEM_50
 10
56.50999999999999
 20
9.599999999999999
 30
0.0
 11
57.71
 21
9.599999999999999
 31
0.0
  0
LINE
  8
ITEM_50
 10
57.71
 20
9.599999999999999
 30
0.0
 11
57.88497699999999
 21
11.59999999999999
 31
0.0
  0
LINE
  8
ITEM_50
 10
55.31
 20
9.599999999999999
 30
0.0
 11
55.13502299999999
 21
11.59999999999999
 31
0.0
  0
LINE
  8
ITEM_50
 10
56.50999999999999
 20
9.599999999999999
 30
0.0
 11
55.31
 21
9.599999999999999
 31
0.0
  0
LINE
  8
ITEM_50
 10
50.05502299999999
 20
11.59999999999999
 30
0.0
 11
47.724977
 21
11.59999999999999
 31
0.0
  0
LINE
  8
ITEM_50
 10
51.42999999999999
 20
9.599999999999999
 30
0.0
 11
52.63
 21
9.599999999999999
 31
0.0
  0
LINE
  8
ITEM_50
 10
52.63
 20
9.599999999999999
 30
0.0
 11
52.804977
 21
11.59999999999999
 31
0.0
  0
LINE
  8
ITEM_50
 10
50.22999999999999
 20
9.599999999999999
 30
0.0
 11
50.05502299999999
 21
11.59999999999999
 31
0.0
  0
LINE
  8
ITEM_50
 10
51.42999999999999
 20
9.599999999999999
 30
0.0
 11
50.22999999999999
 21
9.599999999999999
 31
0.0
  0
LINE
  8
ITEM_50
 10
20.94999999999999
 20
9.599999999999999
 30
0.0
 11
19.75
 21
9.599999999999999
 31
0.0
  0
LINE
  8
ITEM_50
 10
19.75
 20
9.599999999999999
 30
0.0
 11
19.575023
 21
11.59999999999999
 31
0.0
  0
LINE
  8
ITEM_50
 10
22.14999999999999
 20
9.599999999999999
 30
0.0
 11
22.324977
 21
11.59999999999999
 31
0.0
  0
LINE
  8
ITEM_50
 10
20.94999999999999
 20
9.599999999999999
 30
0.0
 11
22.14999999999999
 21
9.599999999999999
 31
0.0
  0
LINE
  8
ITEM_50
 10
26.03
 20
9.599999999999999
 30
0.0
 11
24.82999999999999
 21
9.599999999999999
 31
0.0
  0
LINE
  8
ITEM_50
 10
24.82999999999999
 20
9.599999999999999
 30
0.0
 11
24.65502299999999
 21
11.59999999999999
 31
0.0
  0
LINE
  8
ITEM_50
 10
27.23
 20
9.599999999999999
 30
0.0
 11
27.40497699999999
 21
11.59999999999999
 31
0.0
  0
LINE
  8
ITEM_50
 10
26.03
 20
9.599999999999999
 30
0.0
 11
27.23
 21
9.599999999999999
 31
0.0
  0
LINE
  8
ITEM_50
 10
24.65502299999999
 20
11.59999999999999
 30
0.0
 11
22.324977
 21
11.59999999999999
 31
0.0
  0
LINE
  8
ITEM_50
 10
31.10999999999999
 20
9.599999999999999
 30
0.0
 11
29.91
 21
9.599999999999999
 31
0.0
  0
LINE
  8
ITEM_50
 10
29.91
 20
9.599999999999999
 30
0.0
 11
29.735023
 21
11.59999999999999
 31
0.0
  0
LINE
  8
ITEM_50
 10
32.31
 20
9.599999999999999
 30
0.0
 11
32.484977
 21
11.59999999999999
 31
0.0
  0
LINE
  8
ITEM_50
 10
31.10999999999999
 20
9.599999999999999
 30
0.0
 11
32.31
 21
9.599999999999999
 31
0.0
  0
LINE
  8
ITEM_50
 10
29.735023
 20
11.59999999999999
 30
0.0
 11
27.40497699999999
 21
11.59999999999999
 31
0.0
  0
LINE
  8
ITEM_50
 10
36.18999999999999
 20
9.599999999999999
 30
0.0
 11
34.99
 21
9.599999999999999
 31
0.0
  0
LINE
  8
ITEM_50
 10
34.99
 20
9.599999999999999
 30
0.0
 11
34.81502299999999
 21
11.59999999999999
 31
0.0
  0
LINE
  8
ITEM_50
 10
37.39
 20
9.599999999999999
 30
0.0
 11
37.56497699999999
 21
11.59999999999999
 31
0.0
  0
LINE
  8
ITEM_50
 10
36.18999999999999
 20
9.599999999999999
 30
0.0
 11
37.39
 21
9.599999999999999
 31
0.0
  0
LINE
  8
ITEM_50
 10
34.81502299999999
 20
11.59999999999999
 30
0.0
 11
32.484977
 21
11.59999999999999
 31
0.0
  0
LINE
  8
ITEM_50
 10
41.27
 20
9.599999999999999
 30
0.0
 11
40.07
 21
9.599999999999999
 31
0.0
  0
LINE
  8
ITEM_50
 10
40.07
 20
9.599999999999999
 30
0.0
 11
39.895023
 21
11.59999999999999
 31
0.0
  0
LINE
  8
ITEM_50
 10
42.46999999999999
 20
9.599999999999999
 30
0.0
 11
42.64497699999999
 21
11.59999999999999
 31
0.0
  0
LINE
  8
ITEM_50
 10
41.27
 20
9.599999999999999
 30
0.0
 11
42.46999999999999
 21
9.599999999999999
 31
0.0
  0
LINE
  8
ITEM_50
 10
39.895023
 20
11.59999999999999
 30
0.0
 11
37.56497699999999
 21
11.59999999999999
 31
0.0
  0
LINE
  8
ITEM_50
 10
44.975023
 20
11.59999999999999
 30
0.0
 11
42.64497699999999
 21
11.59999999999999
 31
0.0
  0
LINE
  8
ITEM_50
 10
46.35
 20
9.599999999999999
 30
0.0
 11
47.54999999999999
 21
9.599999999999999
 31
0.0
  0
LINE
  8
ITEM_50
 10
47.54999999999999
 20
9.599999999999999
 30
0.0
 11
47.724977
 21
11.59999999999999
 31
0.0
  0
LINE
  8
ITEM_50
 10
45.14999999999999
 20
9.599999999999999
 30
0.0
 11
44.975023
 21
11.59999999999999
 31
0.0
  0
LINE
  8
ITEM_50
 10
46.35
 20
9.599999999999999
 30
0.0
 11
45.14999999999999
 21
9.599999999999999
 31
0.0
  0
ARC
  8
ITEM_50
 10
1.5
 20
31.5
 30
0.0
 40
1.5
 50
90.0
 51
180.0
  0
LINE
  8
ITEM_50
 10
1.25
 20
38.5
 30
0.0
 11
7.5
 21
38.5
 31
0.0
  0
ARC
  8
ITEM_50
 10
7.5
 20
40.0
 30
0.0
 40
1.5
 50
270.0
 51
0.0
  0
ARC
  8
ITEM_50
 10
7.5
 20
34.5
 30
0.0
 40
1.5
 50
270.0
 51
90.0
  0
LINE
  8
ITEM_50
 10
7.5
 20
36.0
 30
0.0
 11
1.25
 21
36.0
 31
0.0
  0
LINE
  8
ITEM_50
 10
1.5
 20
33.0
 30
0.0
 11
7.5
 21
33.0
 31
0.0
  0
LINE
  8
ITEM_50
 10
1.499999999999996
 20
55.99999999999999
 30
0.0
 11
3.5
 21
56.0
 31
0.0
  0
LINE
  8
ITEM_50
 10
4.5
 20
55.0
 30
0.0
 11
4.5
 21
54.0
 31
0.0
  0
LINE
  8
ITEM_50
 10
3.5
 20
53.0
 30
0.0
 11
2.5
 21
53.0
 31
0.0
  0
LINE
  8
ITEM_50
 10
2.0
 20
52.5
 30
0.0
 11
2.0
 21
52.5
 31
0.0
  0
LINE
  8
ITEM_50
 10
5.807611999999999
 20
50.0
 30
0.0
 11
4.5
 21
50.0
 31
0.0
  0
ARC
  8
ITEM_50
 10
4.5
 20
52.5
 30
0.0
 40
2.5
 50
180.0
 51
270.0
  0
ARC
  8
ITEM_50
 10
3.5
 20
55.0
 30
0.0
 40
1.0
 50
0.0
 51
90.0
  0
ARC
  8
ITEM_50
 10
2.5
 20
52.5
 30
0.0
 40
0.5
 50
90.0
 51
180.0
  0
LINE
  8
ITEM_50
 10
12.19999999999999
 20
52.5
 30
0.0
 11
12.19999999999999
 21
60.0
 31
0.0
  0
LINE
  8
ITEM_50
 10
5.807611999999999
 20
50.0
 30
0.0
 11
9.699999999999999
 21
50.0
 31
0.0
  0
ARC
  8
ITEM_50
 10
3.5
 20
54.0
 30
0.0
 40
1.0
 50
270.0
 51
0.0
  0
ARC
  8
ITEM_50
 10
9.699999999999999
 20
52.5
 30
0.0
 40
2.5
 50
270.0
 51
0.0
  0
LINE
  8
ITEM_50
 10
5.807611999999999
 20
10.0
 30
0.0
 11
9.699999999999999
 21
10.0
 31
0.0
  0
ARC
  8
ITEM_50
 10
9.699999999999999
 20
12.5
 30
0.0
 40
2.5
 50
270.0
 51
0.0
  0
ARC
  8
ITEM_50
 10
9.699999999999999
 20
27.5
 30
0.0
 40
2.5
 50
0.0
 51
90.0
  0
LINE
  8
ITEM_50
 10
1.5
 20
16.0
 30
0.0
 11
3.5
 21
16.0
 31
0.0
  0
LINE
  8
ITEM_50
 10
4.5
 20
15.0
 30
0.0
 11
4.5
 21
14.0
 31
0.0
  0
LINE
  8
ITEM_50
 10
3.5
 20
13.0
 30
0.0
 11
2.5
 21
13.0
 31
0.0
  0
LINE
  8
ITEM_50
 10
2.0
 20
12.5
 30
0.0
 11
2.0
 21
12.5
 31
0.0
  0
LINE
  8
ITEM_50
 10
5.807611999999999
 20
10.0
 30
0.0
 11
4.5
 21
10.0
 31
0.0
  0
ARC
  8
ITEM_50
 10
4.5
 20
12.5
 30
0.0
 40
2.5
 50
180.0
 51
270.0
  0
ARC
  8
ITEM_50
 10
3.5
 20
15.0
 30
0.0
 40
1.0
 50
0.0
 51
90.0
  0
ARC
  8
ITEM_50
 10
2.5
 20
12.5
 30
0.0
 40
0.5
 50
90.0
 51
180.0
  0
ARC
  8
ITEM_50
 10
3.5
 20
14.0
 30
0.0
 40
1.0
 50
270.0
 51
0.0
  0
ARC
  8
ITEM_50
 10
3.5
 20
26.0
 30
0.0
 40
1.0
 50
0.0
 51
90.0
  0
LINE
  8
ITEM_50
 10
5.807611999999999
 20
30.0
 30
0.0
 11
9.699999999999999
 21
30.0
 31
0.0
  0
LINE
  8
ITEM_50
 10
12.19999999999999
 20
27.5
 30
0.0
 11
12.19999999999999
 21
12.5
 31
0.0
  0
ARC
  8
ITEM_50
 10
2.5
 20
27.5
 30
0.0
 40
0.5
 50
180.0
 51
270.0
  0
ARC
  8
ITEM_50
 10
3.5
 20
25.0
 30
0.0
 40
1.0
 50
270.0
 51
0.0
  0
ARC
  8
ITEM_50
 10
4.5
 20
27.5
 30
0.0
 40
2.5
 50
90.0
 51
180.0
  0
LINE
  8
ITEM_50
 10
5.807611999999999
 20
30.0
 30
0.0
 11
4.5
 21
30.0
 31
0.0
  0
LINE
  8
ITEM_50
 10
2.0
 20
27.5
 30
0.0
 11
2.0
 21
27.5
 31
0.0
  0
LINE
  8
ITEM_50
 10
3.5
 20
27.0
 30
0.0
 11
2.5
 21
27.0
 31
0.0
  0
LINE
  8
ITEM_50
 10
4.5
 20
25.0
 30
0.0
 11
4.5
 21
26.0
 31
0.0
  0
LINE
  8
ITEM_50
 10
1.5
 20
24.0
 30
0.0
 11
3.5
 21
24.0
 31
0.0
  0
ARC
  8
ITEM_50
 10
10.0
 20
4.5
 30
0.0
 40
1.6
 50
141.375167
 51
218.6248329999999
  0
LINE
  8
ITEM_50
 10
11.25
 20
1.125
 30
0.0
 11
11.25
 21
3.501250999999999
 31
0.0
  0
LINE
  8
ITEM_50
 10
11.25
 20
5.498749
 30
0.0
 11
11.25
 21
5.5
 31
0.0
  0
LINE
  8
ITEM_50
 10
11.05
 20
7.0
 30
0.0
 11
8.949999999999999
 21
7.0
 31
0.0
  0
LINE
  8
ITEM_50
 10
8.75
 20
5.5
 30
0.0
 11
8.75
 21
5.498749
 31
0.0
  0
LINE
  8
ITEM_50
 10
8.75
 20
6.799999999999999
 30
0.0
 11
8.75
 21
5.498749
 31
0.0
  0
ARC
  8
ITEM_50
 10
10.0
 20
4.5
 30
0.0
 40
1.6
 50
321.3751669999999
 51
38.624833
  0
LINE
  8
ITEM_50
 10
0.0
 20
116.0
 30
0.0
 11
0.0
 21
105.5
 31
0.0
  0
LINE
  8
ITEM_50
 10
-0.0000000000000002
 20
94.50000000000001
 30
0.0
 11
-0.0000000000000002
 21
88.5
 31
0.0
  0
ARC
  8
ITEM_50
 10
1.5
 20
105.5
 30
0.0
 40
1.5
 50
180.0
 51
269.9999999999997
  0
ARC
  8
ITEM_50
 10
1.499999999999999
 20
94.50000000000001
 30
0.0
 40
1.5
 50
89.99999999999977
 51
180.0
  0
LINE
  8
ITEM_50
 10
0.0
 20
54.49999999999999
 30
0.0
 11
0.0
 21
48.5
 31
0.0
  0
ARC
  8
ITEM_50
 10
1.499999999999999
 20
65.49999999999998
 30
0.0
 40
1.5
 50
180.0
 51
270.0
  0
ARC
  8
ITEM_50
 10
1.5
 20
54.49999999999999
 30
0.0
 40
1.5
 50
90.00000000000011
 51
180.0
  0
LINE
  8
ITEM_50
 10
0.0
 20
14.5
 30
0.0
 11
0.0
 21
4.0
 31
0.0
  0
ARC
  8
ITEM_50
 10
1.5
 20
14.5
 30
0.0
 40
1.5
 50
90.0
 51
180.0
  0
ARC
  8
ITEM_50
 10
1.5
 20
25.5
 30
0.0
 40
1.5
 50
180.0
 51
270.0
  0
LINE
  8
ITEM_50
 10
0.0
 20
31.5
 30
0.0
 11
0.0
 21
25.5
 31
0.0
  0
LINE
  8
ITEM_50
 10
-0.0000000000000002
 20
71.5
 30
0.0
 11
-0.0000000000000002
 21
65.49999999999998
 31
0.0
  0
LINE
  8
ITEM_50
 10
0.0
 20
137.3683269198272
 30
0.0
 11
0.0
 21
138.3683269198272
 31
0.0
  0
LINE
  8
ITEM_50
 10
0.0
 20
138.3683269198272
 30
0.0
 11
200.0
 21
138.3683269198272
 31
0.0
  0
LINE
  8
ITEM_50
 10
200.0
 20
137.3683269198272
 30
0.0
 11
200.0
 21
138.3683269198272
 31
0.0
  0
LINE
  8
ITEM_50
 10
0.0
 20
137.3683269198272
 30
0.0
 11
200.0
 21
137.3683269198272
 31
0.0
  0
LINE
  8
ITEM_50
 10
4.5
 20
137.3683269198272
 30
0.0
 11
4.5
 21
138.3683269198272
 31
0.0
  0
LINE
  8
ITEM_50
 10
6.500000000000001
 20
137.3683269198272
 30
0.0
 11
6.5
 21
138.3683269198272
 31
0.0
  0
LINE
  8
ITEM_50
 10
8.75
 20
137.3683269198272
 30
0.0
 11
8.75
 21
138.3683269198272
 31
0.0
  0
LINE
  8
ITEM_50
 10
11.25
 20
137.3683269198272
 30
0.0
 11
11.25
 21
138.3683269198272
 31
0.0
  0
LINE
  8
ITEM_50
 10
13.5
 20
137.3683269198272
 30
0.0
 11
13.5
 21
138.3683269198272
 31
0.0
  0
LINE
  8
ITEM_50
 10
16.5
 20
137.3683269198272
 30
0.0
 11
16.5
 21
138.3683269198272
 31
0.0
  0
LINE
  8
ITEM_50
 10
18.5
 20
137.3683269198272
 30
0.0
 11
18.5
 21
138.3683269198272
 31
0.0
  0
LINE
  8
ITEM_50
 10
21.49999999999999
 20
137.3683269198272
 30
0.0
 11
21.49999999999999
 21
138.3683269198272
 31
0.0
  0
LINE
  8
ITEM_50
 10
26.49999999999999
 20
137.3683269198272
 30
0.0
 11
26.49999999999999
 21
138.3683269198272
 31
0.0
  0
LINE
  8
ITEM_50
 10
23.49999999999999
 20
137.3683269198272
 30
0.0
 11
23.49999999999999
 21
138.3683269198272
 31
0.0
  0
LINE
  8
ITEM_50
 10
31.49999999999998
 20
137.3683269198272
 30
0.0
 11
31.49999999999998
 21
138.3683269198272
 31
0.0
  0
LINE
  8
ITEM_50
 10
28.49999999999999
 20
137.3683269198272
 30
0.0
 11
28.49999999999999
 21
138.3683269198272
 31
0.0
  0
LINE
  8
ITEM_50
 10
36.49999999999998
 20
137.3683269198272
 30
0.0
 11
36.49999999999998
 21
138.3683269198272
 31
0.0
  0
LINE
  8
ITEM_50
 10
33.49999999999998
 20
137.3683269198272
 30
0.0
 11
33.49999999999998
 21
138.3683269198272
 31
0.0
  0
LINE
  8
ITEM_50
 10
41.49999999999998
 20
137.3683269198272
 30
0.0
 11
41.49999999999998
 21
138.3683269198272
 31
0.0
  0
LINE
  8
ITEM_50
 10
38.49999999999998
 20
137.3683269198272
 30
0.0
 11
38.49999999999998
 21
138.3683269198272
 31
0.0
  0
LINE
  8
ITEM_50
 10
46.49999999999998
 20
137.3683269198272
 30
0.0
 11
46.49999999999998
 21
138.3683269198272
 31
0.0
  0
LINE
  8
ITEM_50
 10
43.49999999999998
 20
137.3683269198272
 30
0.0
 11
43.49999999999998
 21
138.3683269198272
 31
0.0
  0
LINE
  8
ITEM_50
 10
51.49999999999998
 20
137.3683269198272
 30
0.0
 11
51.49999999999998
 21
138.3683269198272
 31
0.0
  0
LINE
  8
ITEM_50
 10
48.49999999999998
 20
137.3683269198272
 30
0.0
 11
48.49999999999998
 21
138.3683269198272
 31
0.0
  0
LINE
  8
ITEM_50
 10
56.49999999999998
 20
137.3683269198272
 30
0.0
 11
56.49999999999998
 21
138.3683269198272
 31
0.0
  0
LINE
  8
ITEM_50
 10
53.49999999999998
 20
137.3683269198272
 30
0.0
 11
53.49999999999998
 21
138.3683269198272
 31
0.0
  0
LINE
  8
ITEM_50
 10
61.49999999999998
 20
137.3683269198272
 30
0.0
 11
61.49999999999998
 21
138.3683269198272
 31
0.0
  0
LINE
  8
ITEM_50
 10
58.49999999999998
 20
137.3683269198272
 30
0.0
 11
58.49999999999998
 21
138.3683269198272
 31
0.0
  0
LINE
  8
ITEM_50
 10
66.49999999999998
 20
137.3683269198272
 30
0.0
 11
66.49999999999998
 21
138.3683269198272
 31
0.0
  0
LINE
  8
ITEM_50
 10
63.49999999999998
 20
137.3683269198272
 30
0.0
 11
63.49999999999998
 21
138.3683269198272
 31
0.0
  0
LINE
  8
ITEM_50
 10
76.49999999999998
 20
137.3683269198272
 30
0.0
 11
76.49999999999998
 21
138.3683269198272
 31
0.0
  0
LINE
  8
ITEM_50
 10
73.49999999999998
 20
137.3683269198272
 30
0.0
 11
73.49999999999998
 21
138.3683269198272
 31
0.0
  0
LINE
  8
ITEM_50
 10
81.49999999999998
 20
137.3683269198272
 30
0.0
 11
81.49999999999998
 21
138.3683269198272
 31
0.0
  0
LINE
  8
ITEM_50
 10
78.49999999999998
 20
137.3683269198272
 30
0.0
 11
78.49999999999998
 21
138.3683269198272
 31
0.0
  0
LINE
  8
ITEM_50
 10
83.49999999999998
 20
137.3683269198272
 30
0.0
 11
83.49999999999998
 21
138.3683269198272
 31
0.0
  0
LINE
  8
ITEM_50
 10
86.49999999999998
 20
137.3683269198272
 30
0.0
 11
86.49999999999998
 21
138.3683269198272
 31
0.0
  0
LINE
  8
ITEM_50
 10
88.49999999999998
 20
137.3683269198272
 30
0.0
 11
88.49999999999998
 21
138.3683269198272
 31
0.0
  0
LINE
  8
ITEM_50
 10
91.49999999999998
 20
137.3683269198272
 30
0.0
 11
91.49999999999998
 21
138.3683269198272
 31
0.0
  0
LINE
  8
ITEM_50
 10
93.49999999999998
 20
137.3683269198272
 30
0.0
 11
93.49999999999998
 21
138.3683269198272
 31
0.0
  0
LINE
  8
ITEM_50
 10
96.49999999999998
 20
137.3683269198272
 30
0.0
 11
96.49999999999998
 21
138.3683269198272
 31
0.0
  0
LINE
  8
ITEM_50
 10
98.49999999999998
 20
137.3683269198272
 30
0.0
 11
98.49999999999998
 21
138.3683269198272
 31
0.0
  0
LINE
  8
ITEM_50
 10
101.4999999999999
 20
137.3683269198272
 30
0.0
 11
101.4999999999999
 21
138.3683269198272
 31
0.0
  0
LINE
  8
ITEM_50
 10
103.4999999999999
 20
137.3683269198272
 30
0.0
 11
103.4999999999999
 21
138.3683269198272
 31
0.0
  0
LINE
  8
ITEM_50
 10
106.4999999999999
 20
137.3683269198272
 30
0.0
 11
106.4999999999999
 21
138.3683269198272
 31
0.0
  0
LINE
  8
ITEM_50
 10
108.4999999999999
 20
137.3683269198272
 30
0.0
 11
108.4999999999999
 21
138.3683269198272
 31
0.0
  0
LINE
  8
ITEM_50
 10
111.4999999999999
 20
137.3683269198272
 30
0.0
 11
111.4999999999999
 21
138.3683269198272
 31
0.0
  0
LINE
  8
ITEM_50
 10
113.4999999999999
 20
137.3683269198272
 30
0.0
 11
113.4999999999999
 21
138.3683269198272
 31
0.0
  0
LINE
  8
ITEM_50
 10
116.4999999999999
 20
137.3683269198272
 30
0.0
 11
116.4999999999999
 21
138.3683269198272
 31
0.0
  0
LINE
  8
ITEM_50
 10
118.4999999999999
 20
137.3683269198272
 30
0.0
 11
118.4999999999999
 21
138.3683269198272
 31
0.0
  0
LINE
  8
ITEM_50
 10
121.4999999999999
 20
137.3683269198272
 30
0.0
 11
121.4999999999999
 21
138.3683269198272
 31
0.0
  0
LINE
  8
ITEM_50
 10
123.4999999999999
 20
137.3683269198272
 30
0.0
 11
123.4999999999999
 21
138.3683269198272
 31
0.0
  0
LINE
  8
ITEM_50
 10
126.4999999999999
 20
137.3683269198272
 30
0.0
 11
126.4999999999999
 21
138.3683269198272
 31
0.0
  0
LINE
  8
ITEM_50
 10
133.5
 20
137.3683269198272
 30
0.0
 11
133.5
 21
138.3683269198272
 31
0.0
  0
LINE
  8
ITEM_50
 10
136.5
 20
137.3683269198272
 30
0.0
 11
136.5
 21
138.3683269198272
 31
0.0
  0
LINE
  8
ITEM_50
 10
138.5
 20
137.3683269198272
 30
0.0
 11
138.5
 21
138.3683269198272
 31
0.0
  0
LINE
  8
ITEM_50
 10
141.5
 20
137.3683269198272
 30
0.0
 11
141.5
 21
138.3683269198272
 31
0.0
  0
LINE
  8
ITEM_50
 10
143.5
 20
137.3683269198272
 30
0.0
 11
143.5
 21
138.3683269198272
 31
0.0
  0
LINE
  8
ITEM_50
 10
146.5
 20
137.3683269198272
 30
0.0
 11
146.5
 21
138.3683269198272
 31
0.0
  0
LINE
  8
ITEM_50
 10
151.5
 20
137.3683269198272
 30
0.0
 11
151.5
 21
138.3683269198272
 31
0.0
  0
LINE
  8
ITEM_50
 10
148.5
 20
137.3683269198272
 30
0.0
 11
148.5
 21
138.3683269198272
 31
0.0
  0
LINE
  8
ITEM_50
 10
153.5
 20
137.3683269198272
 30
0.0
 11
153.5
 21
138.3683269198272
 31
0.0
  0
LINE
  8
ITEM_50
 10
156.5
 20
137.3683269198272
 30
0.0
 11
156.5
 21
138.3683269198272
 31
0.0
  0
LINE
  8
ITEM_50
 10
158.5
 20
137.3683269198272
 30
0.0
 11
158.5
 21
138.3683269198272
 31
0.0
  0
LINE
  8
ITEM_50
 10
161.5
 20
137.3683269198272
 30
0.0
 11
161.5
 21
138.3683269198272
 31
0.0
  0
LINE
  8
ITEM_50
 10
163.5
 20
137.3683269198272
 30
0.0
 11
163.5
 21
138.3683269198272
 31
0.0
  0
LINE
  8
ITEM_50
 10
166.5
 20
137.3683269198272
 30
0.0
 11
166.5
 21
138.3683269198272
 31
0.0
  0
LINE
  8
ITEM_50
 10
168.5
 20
137.3683269198272
 30
0.0
 11
168.5
 21
138.3683269198272
 31
0.0
  0
LINE
  8
ITEM_50
 10
171.5
 20
137.3683269198272
 30
0.0
 11
171.5
 21
138.3683269198272
 31
0.0
  0
LINE
  8
ITEM_50
 10
173.5
 20
137.3683269198272
 30
0.0
 11
173.5
 21
138.3683269198272
 31
0.0
  0
LINE
  8
ITEM_50
 10
176.5
 20
137.3683269198272
 30
0.0
 11
176.5
 21
138.3683269198272
 31
0.0
  0
LINE
  8
ITEM_50
 10
178.5
 20
137.3683269198272
 30
0.0
 11
178.5
 21
138.3683269198272
 31
0.0
  0
LINE
  8
ITEM_50
 10
181.5
 20
137.3683269198272
 30
0.0
 11
181.5
 21
138.3683269198272
 31
0.0
  0
LINE
  8
ITEM_50
 10
183.5
 20
137.3683269198272
 30
0.0
 11
183.5
 21
138.3683269198272
 31
0.0
  0
LINE
  8
ITEM_50
 10
186.5
 20
137.3683269198272
 30
0.0
 11
186.5
 21
138.3683269198272
 31
0.0
  0
LINE
  8
ITEM_50
 10
188.75
 20
137.3683269198272
 30
0.0
 11
188.75
 21
138.3683269198272
 31
0.0
  0
LINE
  8
ITEM_50
 10
191.25
 20
137.3683269198272
 30
0.0
 11
191.25
 21
138.3683269198272
 31
0.0
  0
LINE
  8
ITEM_50
 10
193.5
 20
137.3683269198272
 30
0.0
 11
193.5
 21
138.3683269198272
 31
0.0
  0
LINE
  8
ITEM_50
 10
195.5
 20
137.3683269198272
 30
0.0
 11
195.5
 21
138.3683269198272
 31
0.0
  0
LINE
  8
ITEM_50
 10
128.75
 20
137.3683269198272
 30
0.0
 11
128.75
 21
138.3683269198272
 31
0.0
  0
LINE
  8
ITEM_50
 10
131.25
 20
137.3683269198272
 30
0.0
 11
131.25
 21
138.3683269198272
 31
0.0
  0
LINE
  8
ITEM_50
 10
71.25
 20
137.3683269198272
 30
0.0
 11
71.25
 21
138.3683269198272
 31
0.0
  0
LINE
  8
ITEM_50
 10
68.75
 20
137.3683269198272
 30
0.0
 11
68.75
 21
138.3683269198272
 31
0.0
  0
LINE
  8
ITEM_50
 10
-25.39805755720211
 20
119.9860132978431
 30
0.0
 11
-26.39805755720211
 21
119.9860132978431
 31
0.0
  0
LINE
  8
ITEM_50
 10
-26.39805755720211
 20
119.9860132978431
 30
0.0
 11
-26.39805755720211
 21
0.0139868086272941
 31
0.0
  0
LINE
  8
ITEM_50
 10
-25.39805755720211
 20
0.0139868086272941
 30
0.0
 11
-26.39805755720211
 21
0.0139868086272941
 31
0.0
  0
LINE
  8
ITEM_50
 10
-25.39805755720211
 20
119.9860132978431
 30
0.0
 11
-25.39805755720211
 21
0.0139868086272941
 31
0.0
  0
LINE
  8
ITEM_50
 10
218.398057557202
 20
119.9860132978431
 30
0.0
 11
218.398057557202
 21
0.0139868086272941
 31
0.0
  0
LINE
  8
ITEM_50
 10
218.398057557202
 20
0.0139868086272941
 30
0.0
 11
219.398057557202
 21
0.0139868086272941
 31
0.0
  0
LINE
  8
ITEM_50
 10
219.398057557202
 20
119.9860132978431
 30
0.0
 11
219.398057557202
 21
0.0139868086272941
 31
0.0
  0
LINE
  8
ITEM_50
 10
218.398057557202
 20
119.9860132978431
 30
0.0
 11
219.398057557202
 21
119.9860132978431
 31
0.0
  0
LINE
  8
ITEM_50
 10
218.398057557202
 20
104.0
 30
0.0
 11
219.398057557202
 21
104.0
 31
0.0
  0
LINE
  8
ITEM_50
 10
218.398057557202
 20
96.0
 30
0.0
 11
219.398057557202
 21
96.0
 31
0.0
  0
LINE
  8
ITEM_50
 10
218.398057557202
 20
63.99999999999997
 30
0.0
 11
219.398057557202
 21
63.99999999999997
 31
0.0
  0
LINE
  8
ITEM_50
 10
218.398057557202
 20
55.99999999999999
 30
0.0
 11
219.398057557202
 21
55.99999999999999
 31
0.0
  0
LINE
  8
ITEM_50
 10
218.398057557202
 20
24.0
 30
0.0
 11
219.398057557202
 21
24.0
 31
0.0
  0
LINE
  8
ITEM_50
 10
218.398057557202
 20
15.99999999999999
 30
0.0
 11
219.398057557202
 21
16.0
 31
0.0
  0
LINE
  8
ITEM_50
 10
218.398057557202
 20
87.00000000000001
 30
0.0
 11
219.398057557202
 21
87.00000000000001
 31
0.0
  0
LINE
  8
ITEM_50
 10
218.398057557202
 20
84.00000000000001
 30
0.0
 11
219.398057557202
 21
84.00000000000001
 31
0.0
  0
LINE
  8
ITEM_50
 10
218.398057557202
 20
81.5
 30
0.0
 11
219.398057557202
 21
81.5
 31
0.0
  0
LINE
  8
ITEM_50
 10
218.398057557202
 20
78.5
 30
0.0
 11
219.398057557202
 21
78.5
 31
0.0
  0
LINE
  8
ITEM_50
 10
218.398057557202
 20
76.0
 30
0.0
 11
219.398057557202
 21
76.0
 31
0.0
  0
LINE
  8
ITEM_50
 10
218.398057557202
 20
73.0
 30
0.0
 11
219.398057557202
 21
73.0
 31
0.0
  0
LINE
  8
ITEM_50
 10
218.398057557202
 20
32.99999999999999
 30
0.0
 11
219.398057557202
 21
32.99999999999999
 31
0.0
  0
LINE
  8
ITEM_50
 10
218.398057557202
 20
35.99999999999999
 30
0.0
 11
219.398057557202
 21
35.99999999999999
 31
0.0
  0
LINE
  8
ITEM_50
 10
218.398057557202
 20
38.49999999999999
 30
0.0
 11
219.398057557202
 21
38.49999999999999
 31
0.0
  0
LINE
  8
ITEM_50
 10
218.398057557202
 20
41.49999999999999
 30
0.0
 11
219.398057557202
 21
41.49999999999999
 31
0.0
  0
LINE
  8
ITEM_50
 10
218.398057557202
 20
44.0
 30
0.0
 11
219.398057557202
 21
44.0
 31
0.0
  0
LINE
  8
ITEM_50
 10
218.398057557202
 20
47.0
 30
0.0
 11
219.398057557202
 21
47.0
 31
0.0
  0
LINE
  8
ITEM_50
 10
-25.39805755720211
 20
109.9999999999999
 30
0.0
 11
-26.39805755720211
 21
109.9999999999999
 31
0.0
  0
LINE
  8
ITEM_50
 10
-25.39805755720211
 20
105.0
 30
0.0
 11
-26.39805755720211
 21
105.0
 31
0.0
  0
LINE
  8
ITEM_50
 10
-25.39805755720211
 20
99.99999999999998
 30
0.0
 11
-26.39805755720211
 21
100.0
 31
0.0
  0
LINE
  8
ITEM_50
 10
-25.39805755720211
 20
94.99999999999998
 30
0.0
 11
-26.39805755720211
 21
95.0
 31
0.0
  0
LINE
  8
ITEM_50
 10
-25.39805755720211
 20
89.99999999999998
 30
0.0
 11
-26.39805755720211
 21
90.0
 31
0.0
  0
LINE
  8
ITEM_50
 10
-25.39805755720211
 20
85.0
 30
0.0
 11
-26.39805755720211
 21
85.0
 31
0.0
  0
LINE
  8
ITEM_50
 10
-25.39805755720211
 20
80.0
 30
0.0
 11
-26.39805755720211
 21
80.0
 31
0.0
  0
LINE
  8
ITEM_50
 10
-25.39805755720211
 20
75.0
 30
0.0
 11
-26.39805755720211
 21
75.0
 31
0.0
  0
LINE
  8
ITEM_50
 10
-25.39805755720211
 20
70.0
 30
0.0
 11
-26.39805755720211
 21
70.0
 31
0.0
  0
LINE
  8
ITEM_50
 10
-25.39805755720211
 20
65.0
 30
0.0
 11
-26.39805755720211
 21
65.0
 31
0.0
  0
LINE
  8
ITEM_50
 10
-25.39805755720211
 20
59.99999999999999
 30
0.0
 11
-26.39805755720211
 21
60.0
 31
0.0
  0
LINE
  8
ITEM_50
 10
-25.39805755720211
 20
55.0
 30
0.0
 11
-26.39805755720211
 21
55.0
 31
0.0
  0
LINE
  8
ITEM_50
 10
-25.39805755720211
 20
49.99999999999998
 30
0.0
 11
-26.39805755720211
 21
49.99999999999999
 31
0.0
  0
LINE
  8
ITEM_50
 10
-25.39805755720211
 20
44.99999999999999
 30
0.0
 11
-26.39805755720211
 21
45.0
 31
0.0
  0
LINE
  8
ITEM_50
 10
-25.39805755720211
 20
39.99999999999999
 30
0.0
 11
-26.39805755720211
 21
39.99999999999999
 31
0.0
  0
LINE
  8
ITEM_50
 10
-25.39805755720211
 20
35.0
 30
0.0
 11
-26.39805755720211
 21
35.0
 31
0.0
  0
LINE
  8
ITEM_50
 10
-25.39805755720211
 20
29.99999999999999
 30
0.0
 11
-26.39805755720211
 21
30.0
 31
0.0
  0
LINE
  8
ITEM_50
 10
-25.39805755720211
 20
24.99999999999999
 30
0.0
 11
-26.39805755720211
 21
24.99999999999999
 31
0.0
  0
LINE
  8
ITEM_50
 10
-25.39805755720211
 20
20.0
 30
0.0
 11
-26.39805755720211
 21
20.0
 31
0.0
  0
LINE
  8
ITEM_50
 10
-25.39805755720211
 20
14.99999999999999
 30
0.0
 11
-26.39805755720211
 21
15.0
 31
0.0
  0
LINE
  8
ITEM_50
 10
-25.39805755720211
 20
11.0
 30
0.0
 11
-26.39805755720211
 21
11.0
 31
0.0
  0
ENDSEC
  0
EOF
